  0
SECTION
  2
HEADER
  9
$ACADVER
  1
AC1009
  9
$ANGBASE
 50
       0.000000
  9
$ANGDIR
 70
     0
  9
$ATTDIA
 70
     0
  9
$ATTMODE
 70
     0
  9
$ATTREQ
 70
     0
  9
$AUNITS
 70
     0
  9
$AUPREC
 70
     1
  9
$BLIPMODE
 70
     1
  9
$CECOLOR
 62
   256
  9
$CELTYPE
  6
BYLAYER
  9
$CHAMFERA
 40
       0.000000
  9
$CHAMFERB
 40
       0.000000
  9
$CLAYER
  8
0
  9
$COORDS
 70
     1
  9
$DIMALT
 70
     0
  9
$DIMALTD
 70
     2
  9
$DIMALTF
 40
      25.400000
  9
$DIMAPOST
  1

  9
$DIMASO
 70
     0
  9
$DIMASZ
 40
       3.500000
  9
$DIMBLK
  1

  9
$DIMBLK1
  1

  9
$DIMBLK2
  1

  9
$DIMCEN
 40
       1.500000
  9
$DIMCLRD
 70
     0
  9
$DIMCLRE
 70
     0
  9
$DIMCLRT
 70
     0
  9
$DIMDLE
 40
       0.000000
  9
$DIMDLI
 40
       7.000000
  9
$DIMEXE
 40
       1.800000
  9
$DIMEXO
 40
       0.100000
  9
$DIMGAP
 40
       0.090000
  9
$DIMLFAC
 40
       1.000000
  9
$DIMLIM
 70
     0
  9
$DIMPOST
  1

  9
$DIMRND
 40
       0.000000
  9
$DIMSAH
 70
     0
  9
$DIMSCALE
 40
       1.000000
  9
$DIMSE1
 70
     0
  9
$DIMSE2
 70
     0
  9
$DIMSHO
 70
     1
  9
$DIMSOXD
 70
     0
  9
$DIMSTYLE
  2
*UNNAMED
  9
$DIMTAD
 70
     1
  9
$DIMTFAC
 40
       1.000000
  9
$DIMTIH
 70
     0
  9
$DIMTIX
 70
     0
  9
$DIMTM
 40
       0.000000
  9
$DIMTOFL
 70
     0
  9
$DIMTOH
 70
     0
  9
$DIMTOL
 70
     0
  9
$DIMTP
 40
       0.000000
  9
$DIMTSZ
 40
       0.000000
  9
$DIMTVP
 40
       0.000000
  9
$DIMTXT
 40
       3.500000
  9
$DIMZIN
 70
     0
  9
$DRAGMODE
 70
     2
  9
$DWGCODEPAGE
  3
dos850
  9
$ELEVATION
 40
       0.000000
  9
$EXTMAX
 10
    3343.222900
 20
    2476.058594
 30
       0.000000
  9
$EXTMIN
 10
       0.000000
 20
       0.000000
 30
       0.000000
  9
$FILLETRAD
 40
       0.000000
  9
$FILLMODE
 70
     1
  9
$HANDLING
 70
     0
  9
$HANDSEED
  5
0
  9
$INSBASE
 10
       0.000000
 20
       0.000000
 30
       0.000000
  9
$LIMCHECK
 70
     0
  9
$LIMMAX
 10
    3343.222900
 20
    2476.058594
  9
$LIMMIN
 10
       0.000000
 20
       0.000000
  9
$LTSCALE
 40
       1.000000
  9
$LUNITS
 70
     2
  9
$LUPREC
 70
     2
  9
$MAXACTVP
 70
    16
  9
$MENU
  1
ACAD
  9
$MIRRTEXT
 70
     0
  9
$ORTHOMODE
 70
     0
  9
$OSMODE
 70
     0
  9
$PDMODE
 70
     0
  9
$PDSIZE
 40
       0.000000
  9
$PELEVATION
 40
       0.000000
  9
$PEXTMAX
 10
    3343.222900
 20
    2476.058594
 30
       0.000000
  9
$PEXTMIN
 10
       0.000000
 20
       0.000000
 30
       0.000000
  9
$PINSBASE
 10
       0.000000
 20
       0.000000
 30
       0.000000
  9
$PLIMCHECK
 70
     0
  9
$PLIMMAX
 10
    3343.222900
 20
    2476.058594
  9
$PLIMMIN
 10
       0.000000
 20
       0.000000
  9
$PLINEGEN
 70
     0
  9
$PLINEWID
 40
       0.000000
  9
$PSLTSCALE
 70
     1
  9
$PUCSNAME
  2

  9
$PUCSORG
 10
       0.000000
 20
       0.000000
 30
       0.000000
  9
$PUCSXDIR
 10
       1.000000
 20
       0.000000
 30
       0.000000
  9
$PUCSYDIR
 10
       0.000000
 20
       1.000000
 30
       0.000000
  9
$QTEXTMODE
 70
     0
  9
$REGENMODE
 70
     1
  9
$SHADEDGE
 70
     3
  9
$SHADEDIF
 70
    70
  9
$SKETCHINC
 40
       1.000000
  9
$SKPOLY
 70
     0
  9
$SPLFRAME
 70
     0
  9
$SPLINESEGS
 70
     8
  9
$SPLINETYPE
 70
     6
  9
$SURFTAB1
 70
     6
  9
$SURFTAB2
 70
     6
  9
$SURFTYPE
 70
     6
  9
$SURFU
 70
     6
  9
$SURFV
 70
     6
  9
$TDCREATE
 40
2453461.5708333333
  9
$TDINDWG
 40
       0.000000
  9
$TDUPDATE
 40
2453461.5708333333
  9
$TDUSRTIMER
 40
       0.000000
  9
$TEXTSIZE
 40
       3.500000
  9
$TEXTSTYLE
  7
STANDARD
  9
$THICKNESS
 40
       0.000000
  9
$TILEMODE
 70
     1
  9
$TRACEWID
 40
       1.000000
  9
$TREEDEPTH
 70
 -3020
  9
$UCSNAME
  2

  9
$UCSORG
 10
       0.000000
 20
       0.000000
 30
       0.000000
  9
$UCSXDIR
 10
       1.000000
 20
       0.000000
 30
       0.000000
  9
$UCSYDIR
 10
       0.000000
 20
       1.000000
 30
       0.000000
  9
$UNITMODE
 70
     0
  9
$USERI1
 70
     0
  9
$USERI2
 70
     0
  9
$USERI3
 70
     0
  9
$USERI4
 70
     0
  9
$USERI5
 70
     0
  9
$USERR1
 40
       0.000000
  9
$USERR2
 40
       0.000000
  9
$USERR3
 40
       0.000000
  9
$USERR4
 40
       0.000000
  9
$USERR5
 40
       0.000000
  9
$USRTIMER
 70
     0
  9
$VISRETAIN
 70
     0
  9
$WORLDVIEW
 70
     1
  0
ENDSEC
  0
SECTION
  2
TABLES
  0
TABLE
  2
LTYPE
 70
    16
  0
LTYPE
  2
AUSGEZOGEN
 70
     0
  3
________________
 72
    65
 73
     0
 40
       0.000000
  0
LTYPE
  2
VERDECKTE_KANTE
 70
     0
  3
____________
 72
    65
 73
     2
 40
5.
 49
4.
 49
-1.
  0
LTYPE
  2
HILFSLINIE
 70
     0
  3
________________
 72
    65
 73
     0
 40
       0.000000
  0
LTYPE
  2
BRUCHLINIE
 70
     0
  3
________________
 72
    65
 73
     0
 40
       0.000000
  0
LTYPE
  2
MITTELLINIE
 70
     0
  3
__________ _
 72
    65
 73
     4
 40
13.
 49
10.
 49
-1.
 49
1.
 49
-1.
  0
LTYPE
  2
SCHNITTLINIE
 70
     0
  3
__________ _
 72
    65
 73
     4
 40
13.
 49
10.
 49
-1.
 49
1.
 49
-1.
  0
LTYPE
  2
SCHWERLINIE
 70
     0
  3
__________ _ _
 72
    65
 73
     6
 40
15.
 49
10.
 49
-1.
 49
1.
 49
-1.
 49
1.
 49
-1.
  0
LTYPE
  2
ENTWURFSLINIE
 70
     0
  3
_   _   _   _
 72
    65
 73
     8
 40
16.
 49
1.
 49
-3.
 49
1.
 49
-3.
 49
1.
 49
-3.
 49
1.
 49
-3.
  0
LTYPE
  2
SONDERLINIE1
 70
     0
  3
________________
 72
    65
 73
     0
 40
       0.000000
  0
LTYPE
  2
SONDERLINIE2
 70
     0
  3
__________ _ _
 72
    65
 73
     6
 40
15.
 49
10.
 49
-1.
 49
1.
 49
-1.
 49
1.
 49
-1.
  0
LTYPE
  2
SONDERLINIE3
 70
     0
  3
_________ _ _ _
 72
    65
 73
     8
 40
16.
 49
9.
 49
-1.
 49
1.
 49
-1.
 49
1.
 49
-1.
 49
1.
 49
-1.
  0
LTYPE
  2
SONDERLINIE4
 70
     0
  3
_________ _ _ _
 72
    65
 73
     8
 40
16.
 49
9.
 49
-1.
 49
1.
 49
-1.
 49
1.
 49
-1.
 49
1.
 49
-1.
  0
LTYPE
  2
SONDERLINIE5
 70
     0
  3
_______ _ _ _ _
 72
    65
 73
    10
 40
16.
 49
7.
 49
-1.
 49
1.
 49
-1.
 49
1.
 49
-1.
 49
1.
 49
-1.
 49
1.
 49
-1.
  0
LTYPE
  2
SONDERLINIE6
 70
     0
  3
_______ _ _ _ _
 72
    65
 73
    10
 40
16.
 49
7.
 49
-1.
 49
1.
 49
-1.
 49
1.
 49
-1.
 49
1.
 49
-1.
 49
1.
 49
-1.
  0
LTYPE
  2
SONDERLINIE7
 70
     0
  3
_____ _ _ _ _ _
 72
    65
 73
    12
 40
16.
 49
5.
 49
-1.
 49
1.
 49
-1.
 49
1.
 49
-1.
 49
1.
 49
-1.
 49
1.
 49
-1.
 49
1.
 49
-1.
  0
LTYPE
  2
SONDERLINIE8
 70
     0
  3
_____ _ _ _ _ _
 72
    65
 73
    12
 40
16.
 49
5.
 49
-1.
 49
1.
 49
-1.
 49
1.
 49
-1.
 49
1.
 49
-1.
 49
1.
 49
-1.
 49
1.
 49
-1.
  0
ENDTAB
  0
TABLE
  2
LAYER
 70
     1
  0
LAYER
  2
0
 62
     7
  6
AUSGEZOGEN
 70
    64
  0
ENDTAB
  0
TABLE
  2
STYLE
 70
     0
  0
STYLE
  2
STANDARD
 70
     0
 40
     0
 41
       1.000000
 50
       0.000000
 71
     0
 42
       3.500000
  3
isocp
  4

  0
ENDTAB
  0
TABLE
  2
VIEW
 70
     0
  0
ENDTAB
  0
TABLE
  2
VPORT
 70
     2
  0
VPORT
  2
*ACTIVE
 70
     0
 10
       0.000000
 20
       0.000000
 11
       1.000000
 21
       1.000000
 12
    1671.611450
 22
    1238.029297
 13
       0.000000
 23
       0.000000
 14
       1.000000
 24
       1.000000
 15
       0.000000
 25
       0.000000
 16
       0.000000
 26
       0.000000
 36
       1.000000
 17
       0.000000
 27
       0.000000
 37
       0.000000
 40
    2476.058594
 41
       1.350220
 42
      50.000000
 43
       0.000000
 44
       0.000000
 50
       0.000000
 51
       0.000000
 71
     0
 72
   100
 73
     1
 74
     1
 75
     0
 76
     0
 77
     0
 78
     0
  0
ENDTAB
  0
TABLE
  2
DIMSTYLE
 70
     1
  0
DIMSTYLE
  2
STDBEM
 70
     0
  3

  4

  5

  6

  7

 40
       1.000000
 41
       3.500000
 42
       0.100000
 43
       7.000000
 44
       1.800000
 45
       0.000000
 46
       0.000000
 47
       0.000000
 48
       0.000000
140
       3.500000
141
       1.500000
142
       0.000000
143
      25.400000
144
       1.000000
145
       0.000000
146
       1.000000
147
       0.090000
 71
     0
 72
     0
 73
     0
 74
     0
 75
     0
 76
     0
 77
     1
 78
     0
170
     0
171
     2
172
     0
173
     0
174
     0
175
     0
176
     0
177
     0
178
     0
  0
ENDTAB
  0
ENDSEC
  0
SECTION
  2
BLOCKS
  0
ENDSEC
  0
SECTION
  2
ENTITIES
  0
LINE
  8
0
  6
HILFSLINIE
 62
     8
 10
    2123.445557
 20
    1079.594971
 11
    3310.446045
 21
    1079.594971
  0
LINE
  8
0
  6
HILFSLINIE
 62
     8
 10
     579.326538
 20
     969.778564
 11
    1286.226929
 21
     969.778564
  0
LINE
  8
0
  6
HILFSLINIE
 62
     8
 10
     579.326538
 20
     611.278564
 11
    1286.226929
 21
     611.278564
  0
LINE
  8
0
  6
HILFSLINIE
 62
     8
 10
      38.776733
 20
     438.528564
 11
      38.776733
 21
    1142.528564
  0
LINE
  8
0
  6
HILFSLINIE
 62
     8
 10
    1809.776733
 20
     421.528564
 11
      55.776733
 21
     421.528564
  0
LINE
  8
0
  6
HILFSLINIE
 62
     8
 10
    1826.776733
 20
    1142.528564
 11
    1826.776733
 21
     438.528564
  0
LINE
  8
0
  6
HILFSLINIE
 62
     8
 10
      55.776733
 20
    1159.528564
 11
    1809.776733
 21
    1159.528564
  0
LINE
  8
0
  6
HILFSLINIE
 62
     8
 10
     406.876831
 20
     462.727783
 11
    1458.676636
 21
     462.727783
  0
LINE
  8
0
  6
HILFSLINIE
 62
     8
 10
     406.876831
 20
    1118.329346
 11
    1458.676636
 21
    1118.329346
  0
ARC
  8
0
  6
HILFSLINIE
 62
     8
 10
     579.326538
 20
     790.528564
 40
     179.250000
 50
      90.000000
 51
     270.000000
  0
ARC
  8
0
  6
HILFSLINIE
 62
     8
 10
    1286.226929
 20
     790.528564
 40
     179.250000
 50
     270.000000
 51
      90.000000
  0
ARC
  8
0
  6
HILFSLINIE
 62
     8
 10
      55.776733
 20
    1142.528564
 40
      17.000000
 50
      90.000000
 51
     180.000000
  0
ARC
  8
0
  6
HILFSLINIE
 62
     8
 10
      55.776733
 20
     438.528564
 40
      17.000000
 50
     180.000000
 51
     270.000000
  0
ARC
  8
0
  6
HILFSLINIE
 62
     8
 10
    1809.776733
 20
     438.528564
 40
      17.000000
 50
     270.000000
 51
       0.000000
  0
ARC
  8
0
  6
HILFSLINIE
 62
     8
 10
    1809.776733
 20
    1142.528564
 40
      17.000000
 50
       0.000000
 51
      90.000000
  0
ARC
  8
0
  6
HILFSLINIE
 62
     8
 10
     406.876831
 20
     790.528564
 40
     327.799988
 50
      90.000000
 51
     270.000000
  0
ARC
  8
0
  6
HILFSLINIE
 62
     8
 10
    1458.676636
 20
     790.528564
 40
     327.799988
 50
     270.000000
 51
      90.000000
  0
CIRCLE
  8
0
  6
HILFSLINIE
 62
     8
 10
     932.776733
 20
     790.528564
 40
      45.000000
  0
LINE
  8
0
  6
MITTELLINIE
 62
     8
 10
    2732.776611
 20
    1625.528564
 11
    2732.776611
 21
    2060.528564
  0
LINE
  8
0
  6
MITTELLINIE
 62
     8
 10
     898.391968
 20
    1990.528564
 11
     967.161499
 21
    1990.528564
  0
LINE
  8
0
  6
MITTELLINIE
 62
     8
 10
     932.776733
 20
    1613.719971
 11
     932.776733
 21
    2060.528564
  0
LINE
  8
0
  6
MITTELLINIE
 62
     8
 10
    1782.776733
 20
     790.528564
 11
      82.776733
 21
     790.528564
  0
LINE
  8
0
  6
MITTELLINIE
 62
     8
 10
     932.776733
 20
     415.528564
 11
     932.776733
 21
    1165.528564
  0
ARC
  8
0
 10
    2894.288818
 20
    1737.370361
 40
      90.000000
 50
     274.850677
 51
     345.666260
  0
ARC
  8
0
 10
    2571.264404
 20
    1737.370361
 40
      90.000000
 50
     194.333740
 51
     265.149292
  0
ARC
  8
0
 10
      74.876343
 20
    2457.794189
 40
    3000.000000
 50
     345.666321
 51
     351.773407
  0
ARC
  8
0
 10
    5390.676758
 20
    2457.794189
 40
    3000.000000
 50
     188.226608
 51
     194.333664
  0
ARC
  8
0
 10
    2705.826416
 20
    1639.040283
 40
       8.000000
 50
     213.053772
 51
     270.000000
  0
ARC
  8
0
 10
    2687.387451
 20
    1627.040283
 40
      14.000000
 50
      33.057125
 51
      86.706879
  0
ARC
  8
0
 10
    2759.726807
 20
    1639.040283
 40
       8.000000
 50
     270.000000
 51
     326.948120
  0
ARC
  8
0
 10
    2778.165771
 20
    1627.040283
 40
      14.000000
 50
      93.293114
 51
     146.942871
  0
ARC
  8
0
 10
    3101.776611
 20
    2034.528564
 40
       6.000000
 50
     270.000000
 51
       0.000000
  0
ARC
  8
0
 10
    3101.776611
 20
    2054.528564
 40
       6.000000
 50
       0.000000
 51
      93.172585
  0
ARC
  8
0
 10
    2363.776611
 20
    2034.528564
 40
       6.000000
 50
     180.000000
 51
     270.000000
  0
ARC
  8
0
 10
    2363.776611
 20
    2054.528564
 40
       6.000000
 50
      86.822754
 51
     180.000000
  0
ARC
  8
0
 10
    2732.776611
 20
    3640.528564
 40
    2000.000000
 50
     265.149200
 51
     274.850800
  0
ARC
  8
0
 10
     401.734985
 20
    1759.469971
 40
     105.000000
 50
     217.906784
 51
     268.500031
  0
ARC
  8
0
 10
    1463.818481
 20
    1759.469971
 40
     105.000000
 50
     271.499969
 51
     322.093231
  0
ARC
  8
0
 10
      38.776733
 20
    2054.528564
 40
       6.000000
 50
      90.000000
 51
     180.000000
  0
ARC
  8
0
 10
    1896.913208
 20
    2923.716064
 40
    2000.000000
 50
     206.589401
 51
     217.906723
  0
ARC
  8
0
 10
     -31.359741
 20
    2923.716064
 40
    2000.000000
 50
     322.093262
 51
     333.410583
  0
ARC
  8
0
 10
     905.826538
 20
    1639.719971
 40
       8.000000
 50
     213.068359
 51
     270.000000
  0
ARC
  8
0
 10
     887.387573
 20
    1627.719971
 40
      14.000000
 50
      33.048244
 51
      86.706879
  0
ARC
  8
0
 10
     959.726929
 20
    1639.719971
 40
       8.000000
 50
     270.000000
 51
     326.931641
  0
ARC
  8
0
 10
     978.165894
 20
    1627.719971
 40
      14.000000
 50
      93.293114
 51
     146.951752
  0
ARC
  8
0
 10
      38.776733
 20
    2034.528564
 40
       6.000000
 50
     180.000000
 51
     270.000000
  0
ARC
  8
0
 10
    1826.776733
 20
    2054.528564
 40
       6.000000
 50
       0.000000
 51
      93.107391
  0
ARC
  8
0
 10
    1826.776733
 20
    2034.528564
 40
       6.000000
 50
     270.000000
 51
       0.000000
  0
ARC
  8
0
 10
     407.776733
 20
     790.528564
 40
     315.000000
 50
      90.000000
 51
     270.000000
  0
ARC
  8
0
 10
    1457.776733
 20
     790.528564
 40
     315.000000
 50
     270.000000
 51
      90.000000
  0
ARC
  8
0
 10
      55.776733
 20
     438.528564
 40
      23.000000
 50
     180.000000
 51
     270.000000
  0
ARC
  8
0
 10
      55.776733
 20
    1142.528564
 40
      23.000000
 50
      90.000000
 51
     180.000000
  0
ARC
  8
0
 10
    1809.776733
 20
    1142.528564
 40
      23.000000
 50
       0.000000
 51
      90.000000
  0
ARC
  8
0
 10
    1809.776733
 20
     438.528564
 40
      23.000000
 50
     270.000000
 51
       0.000000
  0
LINE
  8
0
 10
    2759.726807
 20
    1631.040283
 11
    2705.826416
 21
    1631.040283
  0
LINE
  8
0
 10
    3107.776611
 20
    2034.528564
 11
    3107.776611
 21
    2054.528564
  0
LINE
  8
0
 10
    3101.776611
 20
    2028.528564
 11
    2363.776611
 21
    2028.528564
  0
LINE
  8
0
 10
    2357.776611
 20
    2034.528564
 11
    2357.776611
 21
    2054.528564
  0
LINE
  8
0
 10
    2363.776611
 20
    2060.528564
 11
    3101.776611
 21
    2060.528564
  0
LINE
  8
0
 10
     959.726929
 20
    1631.719971
 11
     905.826538
 21
    1631.719971
  0
LINE
  8
0
 10
      32.776733
 20
    2054.528564
 11
      32.776733
 21
    2034.528564
  0
LINE
  8
0
 10
      38.776733
 20
    2028.528564
 11
    1826.776733
 21
    2028.528564
  0
LINE
  8
0
 10
     932.776733
 20
    1640.528564
 11
     398.986450
 21
    1654.507080
  0
LINE
  8
0
 10
     932.776733
 20
    1640.528564
 11
    1466.567017
 21
    1654.507080
  0
LINE
  8
0
 10
    1832.776733
 20
    2054.528564
 11
    1832.776733
 21
    2034.528564
  0
LINE
  8
0
 10
      38.939331
 20
    2060.528564
 11
    1826.614136
 21
    2060.528564
  0
LINE
  8
0
 10
    1457.776733
 20
     475.528564
 11
     407.776733
 21
     475.528564
  0
LINE
  8
0
 10
     407.776733
 20
    1105.528564
 11
    1457.776733
 21
    1105.528564
  0
LINE
  8
0
 10
      32.776733
 20
     438.528564
 11
      32.776733
 21
    1142.528564
  0
LINE
  8
0
 10
    1809.776733
 20
     415.528564
 11
      55.776733
 21
     415.528564
  0
LINE
  8
0
 10
    1832.776733
 20
    1142.528564
 11
    1832.776733
 21
     438.528564
  0
LINE
  8
0
 10
      55.776733
 20
    1165.528564
 11
    1809.776733
 21
    1165.528564
  0
CIRCLE
  8
0
 10
     932.776733
 20
    1990.528564
 40
      26.000000
  0
CIRCLE
  8
0
 10
     932.776733
 20
     790.528564
 40
      26.000000
  0
POLYLINE
  8
0
 66
     1
 10
       0.000000
 20
       0.000000
 30
       0.000000
  0
VERTEX
  8
0
 10
     906.776733
 20
     483.727783
 30
       0.000000
  0
VERTEX
  8
0
 10
     907.585327
 20
     484.520752
 30
       0.000000
  0
VERTEX
  8
0
 10
     909.626343
 20
     485.184814
 30
       0.000000
  0
VERTEX
  8
0
 10
     912.156616
 20
     485.677002
 30
       0.000000
  0
VERTEX
  8
0
 10
     914.633179
 20
     486.020752
 30
       0.000000
  0
VERTEX
  8
0
 10
     916.823120
 20
     486.255127
 30
       0.000000
  0
VERTEX
  8
0
 10
     918.681030
 20
     486.417236
 30
       0.000000
  0
VERTEX
  8
0
 10
     920.235718
 20
     486.532471
 30
       0.000000
  0
VERTEX
  8
0
 10
     921.537964
 20
     486.614502
 30
       0.000000
  0
VERTEX
  8
0
 10
     922.634644
 20
     486.675049
 30
       0.000000
  0
VERTEX
  8
0
 10
     923.566772
 20
     486.719971
 30
       0.000000
  0
VERTEX
  8
0
 10
     924.366089
 20
     486.757080
 30
       0.000000
  0
VERTEX
  8
0
 10
     925.058960
 20
     486.784424
 30
       0.000000
  0
VERTEX
  8
0
 10
     925.663940
 20
     486.805908
 30
       0.000000
  0
VERTEX
  8
0
 10
     926.197632
 20
     486.825439
 30
       0.000000
  0
VERTEX
  8
0
 10
     926.672241
 20
     486.839111
 30
       0.000000
  0
VERTEX
  8
0
 10
     927.096558
 20
     486.850830
 30
       0.000000
  0
VERTEX
  8
0
 10
     927.479370
 20
     486.860596
 30
       0.000000
  0
VERTEX
  8
0
 10
     927.826538
 20
     486.870361
 30
       0.000000
  0
VERTEX
  8
0
 10
     928.143433
 20
     486.876221
 30
       0.000000
  0
VERTEX
  8
0
 10
     928.433960
 20
     486.884033
 30
       0.000000
  0
VERTEX
  8
0
 10
     928.702515
 20
     486.887939
 30
       0.000000
  0
VERTEX
  8
0
 10
     928.950562
 20
     486.893799
 30
       0.000000
  0
VERTEX
  8
0
 10
     929.182007
 20
     486.897705
 30
       0.000000
  0
VERTEX
  8
0
 10
     929.972046
 20
     486.909424
 30
       0.000000
  0
VERTEX
  8
0
 10
     930.609741
 20
     486.917236
 30
       0.000000
  0
VERTEX
  8
0
 10
     931.393921
 20
     486.923096
 30
       0.000000
  0
VERTEX
  8
0
 10
     932.372437
 20
     486.927002
 30
       0.000000
  0
VERTEX
  8
0
 10
     933.387085
 20
     486.927002
 30
       0.000000
  0
VERTEX
  8
0
 10
     934.531616
 20
     486.921143
 30
       0.000000
  0
VERTEX
  8
0
 10
     935.410522
 20
     486.911377
 30
       0.000000
  0
VERTEX
  8
0
 10
     936.155640
 20
     486.901611
 30
       0.000000
  0
VERTEX
  8
0
 10
     937.119507
 20
     486.884033
 30
       0.000000
  0
VERTEX
  8
0
 10
     937.410034
 20
     486.876221
 30
       0.000000
  0
VERTEX
  8
0
 10
     937.726929
 20
     486.870361
 30
       0.000000
  0
VERTEX
  8
0
 10
     938.074097
 20
     486.860596
 30
       0.000000
  0
VERTEX
  8
0
 10
     938.456909
 20
     486.850830
 30
       0.000000
  0
VERTEX
  8
0
 10
     938.881714
 20
     486.839111
 30
       0.000000
  0
VERTEX
  8
0
 10
     939.355835
 20
     486.825439
 30
       0.000000
  0
VERTEX
  8
0
 10
     939.889526
 20
     486.805908
 30
       0.000000
  0
VERTEX
  8
0
 10
     940.494507
 20
     486.784424
 30
       0.000000
  0
VERTEX
  8
0
 10
     941.187378
 20
     486.757080
 30
       0.000000
  0
VERTEX
  8
0
 10
     941.986694
 20
     486.719971
 30
       0.000000
  0
VERTEX
  8
0
 10
     942.918823
 20
     486.675049
 30
       0.000000
  0
VERTEX
  8
0
 10
     944.015503
 20
     486.614502
 30
       0.000000
  0
VERTEX
  8
0
 10
     945.317749
 20
     486.532471
 30
       0.000000
  0
VERTEX
  8
0
 10
     946.872437
 20
     486.417236
 30
       0.000000
  0
VERTEX
  8
0
 10
     948.730347
 20
     486.255127
 30
       0.000000
  0
SEQEND
  8
0
  0
POLYLINE
  8
0
 66
     1
 10
       0.000000
 20
       0.000000
 30
       0.000000
  0
VERTEX
  8
0
 10
     948.730347
 20
     486.255127
 30
       0.000000
  0
VERTEX
  8
0
 10
     950.920288
 20
     486.020752
 30
       0.000000
  0
VERTEX
  8
0
 10
     953.396851
 20
     485.677002
 30
       0.000000
  0
VERTEX
  8
0
 10
     955.927124
 20
     485.184814
 30
       0.000000
  0
VERTEX
  8
0
 10
     957.968140
 20
     484.520752
 30
       0.000000
  0
VERTEX
  8
0
 10
     958.776733
 20
     483.727783
 30
       0.000000
  0
VERTEX
  8
0
 10
     957.968140
 20
     482.936768
 30
       0.000000
  0
VERTEX
  8
0
 10
     955.927124
 20
     482.270752
 30
       0.000000
  0
VERTEX
  8
0
 10
     953.396851
 20
     481.778564
 30
       0.000000
  0
VERTEX
  8
0
 10
     950.920288
 20
     481.436768
 30
       0.000000
  0
VERTEX
  8
0
 10
     948.730347
 20
     481.202393
 30
       0.000000
  0
VERTEX
  8
0
 10
     946.872437
 20
     481.040283
 30
       0.000000
  0
VERTEX
  8
0
 10
     945.317749
 20
     480.925049
 30
       0.000000
  0
VERTEX
  8
0
 10
     944.015503
 20
     480.843018
 30
       0.000000
  0
VERTEX
  8
0
 10
     942.918823
 20
     480.782471
 30
       0.000000
  0
VERTEX
  8
0
 10
     941.986694
 20
     480.735596
 30
       0.000000
  0
VERTEX
  8
0
 10
     941.187378
 20
     480.700439
 30
       0.000000
  0
VERTEX
  8
0
 10
     940.494507
 20
     480.673096
 30
       0.000000
  0
VERTEX
  8
0
 10
     939.889526
 20
     480.649658
 30
       0.000000
  0
VERTEX
  8
0
 10
     939.355835
 20
     480.632080
 30
       0.000000
  0
VERTEX
  8
0
 10
     938.881226
 20
     480.618408
 30
       0.000000
  0
VERTEX
  8
0
 10
     938.456909
 20
     480.606689
 30
       0.000000
  0
VERTEX
  8
0
 10
     938.074097
 20
     480.594971
 30
       0.000000
  0
VERTEX
  8
0
 10
     937.726929
 20
     480.587158
 30
       0.000000
  0
VERTEX
  8
0
 10
     937.410034
 20
     480.579346
 30
       0.000000
  0
VERTEX
  8
0
 10
     937.119507
 20
     480.573486
 30
       0.000000
  0
VERTEX
  8
0
 10
     936.850952
 20
     480.567627
 30
       0.000000
  0
VERTEX
  8
0
 10
     936.602905
 20
     480.563721
 30
       0.000000
  0
VERTEX
  8
0
 10
     936.371460
 20
     480.559814
 30
       0.000000
  0
VERTEX
  8
0
 10
     935.581421
 20
     480.548096
 30
       0.000000
  0
VERTEX
  8
0
 10
     934.943726
 20
     480.540283
 30
       0.000000
  0
VERTEX
  8
0
 10
     934.159546
 20
     480.532471
 30
       0.000000
  0
VERTEX
  8
0
 10
     933.283569
 20
     480.528564
 30
       0.000000
  0
VERTEX
  8
0
 10
     932.269897
 20
     480.528564
 30
       0.000000
  0
VERTEX
  8
0
 10
     931.149780
 20
     480.534424
 30
       0.000000
  0
VERTEX
  8
0
 10
     929.972046
 20
     480.548096
 30
       0.000000
  0
VERTEX
  8
0
 10
     929.182007
 20
     480.559814
 30
       0.000000
  0
VERTEX
  8
0
 10
     928.950562
 20
     480.563721
 30
       0.000000
  0
VERTEX
  8
0
 10
     928.702515
 20
     480.567627
 30
       0.000000
  0
VERTEX
  8
0
 10
     928.433960
 20
     480.573486
 30
       0.000000
  0
VERTEX
  8
0
 10
     928.143433
 20
     480.579346
 30
       0.000000
  0
VERTEX
  8
0
 10
     927.826538
 20
     480.587158
 30
       0.000000
  0
VERTEX
  8
0
 10
     927.478882
 20
     480.594971
 30
       0.000000
  0
VERTEX
  8
0
 10
     927.096558
 20
     480.606689
 30
       0.000000
  0
VERTEX
  8
0
 10
     926.671753
 20
     480.618408
 30
       0.000000
  0
VERTEX
  8
0
 10
     926.197632
 20
     480.632080
 30
       0.000000
  0
VERTEX
  8
0
 10
     925.663940
 20
     480.649658
 30
       0.000000
  0
VERTEX
  8
0
 10
     925.058960
 20
     480.673096
 30
       0.000000
  0
SEQEND
  8
0
  0
POLYLINE
  8
0
 66
     1
 10
       0.000000
 20
       0.000000
 30
       0.000000
  0
VERTEX
  8
0
 10
     925.058960
 20
     480.673096
 30
       0.000000
  0
VERTEX
  8
0
 10
     924.366089
 20
     480.700439
 30
       0.000000
  0
VERTEX
  8
0
 10
     923.566772
 20
     480.735596
 30
       0.000000
  0
VERTEX
  8
0
 10
     922.634644
 20
     480.782471
 30
       0.000000
  0
VERTEX
  8
0
 10
     921.537964
 20
     480.843018
 30
       0.000000
  0
VERTEX
  8
0
 10
     920.235718
 20
     480.925049
 30
       0.000000
  0
VERTEX
  8
0
 10
     918.681030
 20
     481.040283
 30
       0.000000
  0
VERTEX
  8
0
 10
     916.822632
 20
     481.202393
 30
       0.000000
  0
VERTEX
  8
0
 10
     914.633179
 20
     481.436768
 30
       0.000000
  0
VERTEX
  8
0
 10
     912.156616
 20
     481.778564
 30
       0.000000
  0
VERTEX
  8
0
 10
     909.625854
 20
     482.272705
 30
       0.000000
  0
VERTEX
  8
0
 10
     907.584839
 20
     482.936768
 30
       0.000000
  0
VERTEX
  8
0
 10
     906.776733
 20
     483.727783
 30
       0.000000
  0
SEQEND
  8
0
  0
TEXT
  8
0
 10
    2284.791748
 20
    1319.536377
 40
     100.000008
 50
       0.000000
 51
       0.000000
 41
       0.746667
  1
CLASSIC DUO
 72
     3
 11
    2855.458496
 21
    1319.536377
  0
TEXT
  8
0
 10
    3105.783936
 20
     944.259033
 40
      66.666672
 50
       0.000000
 51
       0.000000
 41
       0.910000
  1
430
 72
     3
 11
    3218.450684
 21
     944.259033
  0
TEXT
  8
0
 10
    2772.450439
 20
     944.259033
 40
      66.666672
 50
       0.000000
 51
       0.000000
 41
       0.910000
  1
750
 72
     3
 11
    2885.117188
 21
     944.259033
  0
TEXT
  8
0
 10
    2439.117432
 20
     944.260986
 40
      66.666672
 50
       0.000000
 51
       0.000000
 41
       0.910000
  1
1800
 72
     3
 11
    2584.284180
 21
     944.260986
  0
TEXT
  8
0
 10
    3105.783936
 20
    1144.259033
 40
      66.666672
 50
       0.000000
 51
       0.000000
 41
       0.910000
  1
Tiefe
 72
     3
 11
    3272.617188
 21
    1144.259033
  0
TEXT
  8
0
 10
    2772.451416
 20
    1144.259033
 40
      66.666672
 50
       0.000000
 51
       0.000000
 41
       0.910000
  1
Breite
 72
     3
 11
    2971.221436
 21
    1144.259033
  0
TEXT
  8
0
 10
    2439.118408
 20
    1144.260986
 40
      66.666672
 50
       0.000000
 51
       0.000000
 41
       0.910000
  1
Laenge
 72
     3
 11
    2681.785156
 21
    1144.260986
  0
TEXT
  8
0
 10
    2105.785400
 20
    1144.260986
 40
      66.666672
 50
       0.000000
 51
       0.000000
 41
       0.910000
  1
Modell
 72
     3
 11
    2313.785400
 21
    1144.260986
  0
TEXT
  8
0
 10
    2139.037354
 20
     940.180908
 40
      66.666672
 50
       0.000000
 51
       0.000000
 41
       0.910000
  1
109
 72
     3
 11
    2240.870605
 21
     940.180908
  0
ENDSEC
  0
EOF
