  0
SECTION
  2
HEADER
  9
$ACADVER
  1
AC1018
  9
$ACADMAINTVER
 70
     0
  9
$DWGCODEPAGE
  3
ANSI_1252
  9
$INSBASE
 10
0.0
 20
0.0
 30
0.0
  9
$EXTMIN
 10
1.000000000000000E+20
 20
1.000000000000000E+20
 30
1.000000000000000E+20
  9
$EXTMAX
 10
-1.000000000000000E+20
 20
-1.000000000000000E+20
 30
-1.000000000000000E+20
  9
$LIMMIN
 10
0.0
 20
0.0
  9
$LIMMAX
 10
12.0
 20
9.0
  9
$ORTHOMODE
 70
     0
  9
$REGENMODE
 70
     1
  9
$FILLMODE
 70
     1
  9
$QTEXTMODE
 70
     0
  9
$MIRRTEXT
 70
     1
  9
$LTSCALE
 40
1.0
  9
$ATTMODE
 70
     1
  9
$TEXTSIZE
 40
0.2
  9
$TRACEWID
 40
0.05
  9
$TEXTSTYLE
  7
Standard
  9
$CLAYER
  8
0
  9
$CELTYPE
  6
ByLayer
  9
$CECOLOR
 62
   256
  9
$CELTSCALE
 40
1.0
  9
$DISPSILH
 70
     0
  9
$DIMSCALE
 40
1.0
  9
$DIMASZ
 40
0.18
  9
$DIMEXO
 40
0.0625
  9
$DIMDLI
 40
0.38
  9
$DIMRND
 40
0.0
  9
$DIMDLE
 40
0.0
  9
$DIMEXE
 40
0.18
  9
$DIMTP
 40
0.0
  9
$DIMTM
 40
0.0
  9
$DIMTXT
 40
0.18
  9
$DIMCEN
 40
0.09
  9
$DIMTSZ
 40
0.0
  9
$DIMTOL
 70
     0
  9
$DIMLIM
 70
     0
  9
$DIMTIH
 70
     1
  9
$DIMTOH
 70
     1
  9
$DIMSE1
 70
     0
  9
$DIMSE2
 70
     0
  9
$DIMTAD
 70
     0
  9
$DIMZIN
 70
     0
  9
$DIMBLK
  1

  9
$DIMASO
 70
     1
  9
$DIMSHO
 70
     1
  9
$DIMPOST
  1

  9
$DIMAPOST
  1

  9
$DIMALT
 70
     0
  9
$DIMALTD
 70
     2
  9
$DIMALTF
 40
25.4
  9
$DIMLFAC
 40
1.0
  9
$DIMTOFL
 70
     0
  9
$DIMTVP
 40
0.0
  9
$DIMTIX
 70
     0
  9
$DIMSOXD
 70
     0
  9
$DIMSAH
 70
     0
  9
$DIMBLK1
  1

  9
$DIMBLK2
  1

  9
$DIMSTYLE
  2
Standard
  9
$DIMCLRD
 70
     0
  9
$DIMCLRE
 70
     0
  9
$DIMCLRT
 70
     0
  9
$DIMTFAC
 40
1.0
  9
$DIMGAP
 40
0.09
  9
$DIMJUST
 70
     0
  9
$DIMSD1
 70
     0
  9
$DIMSD2
 70
     0
  9
$DIMTOLJ
 70
     1
  9
$DIMTZIN
 70
     0
  9
$DIMALTZ
 70
     0
  9
$DIMALTTZ
 70
     0
  9
$DIMUPT
 70
     0
  9
$DIMDEC
 70
     4
  9
$DIMTDEC
 70
     4
  9
$DIMALTU
 70
     2
  9
$DIMALTTD
 70
     2
  9
$DIMTXSTY
  7
Standard
  9
$DIMAUNIT
 70
     0
  9
$DIMADEC
 70
     0
  9
$DIMALTRND
 40
0.0
  9
$DIMAZIN
 70
     0
  9
$DIMDSEP
 70
    46
  9
$DIMATFIT
 70
     3
  9
$DIMFRAC
 70
     0
  9
$DIMLDRBLK
  1

  9
$DIMLUNIT
 70
     2
  9
$DIMLWD
 70
    -2
  9
$DIMLWE
 70
    -2
  9
$DIMTMOVE
 70
     0
  9
$LUNITS
 70
     2
  9
$LUPREC
 70
     4
  9
$SKETCHINC
 40
0.1
  9
$FILLETRAD
 40
0.5
  9
$AUNITS
 70
     0
  9
$AUPREC
 70
     0
  9
$MENU
  1
.
  9
$ELEVATION
 40
0.0
  9
$PELEVATION
 40
0.0
  9
$THICKNESS
 40
0.0
  9
$LIMCHECK
 70
     0
  9
$CHAMFERA
 40
0.5
  9
$CHAMFERB
 40
0.5
  9
$CHAMFERC
 40
1.0
  9
$CHAMFERD
 40
0.0
  9
$SKPOLY
 70
     0
  9
$TDCREATE
 40
2457891.602183924
  9
$TDUCREATE
 40
2457891.51885059
  9
$TDUPDATE
 40
2457891.602183935
  9
$TDUUPDATE
 40
2457891.518850602
  9
$TDINDWG
 40
0.0000000116
  9
$TDUSRTIMER
 40
0.0000000116
  9
$USRTIMER
 70
     1
  9
$ANGBASE
 50
0.0
  9
$ANGDIR
 70
     0
  9
$PDMODE
 70
     0
  9
$PDSIZE
 40
0.0
  9
$PLINEWID
 40
0.0
  9
$SPLFRAME
 70
     0
  9
$SPLINETYPE
 70
     6
  9
$SPLINESEGS
 70
     8
  9
$HANDSEED
  5
5E3
  9
$SURFTAB1
 70
     6
  9
$SURFTAB2
 70
     6
  9
$SURFTYPE
 70
     6
  9
$SURFU
 70
     6
  9
$SURFV
 70
     6
  9
$UCSBASE
  2

  9
$UCSNAME
  2

  9
$UCSORG
 10
0.0
 20
0.0
 30
0.0
  9
$UCSXDIR
 10
1.0
 20
0.0
 30
0.0
  9
$UCSYDIR
 10
0.0
 20
1.0
 30
0.0
  9
$UCSORTHOREF
  2

  9
$UCSORTHOVIEW
 70
     0
  9
$UCSORGTOP
 10
0.0
 20
0.0
 30
0.0
  9
$UCSORGBOTTOM
 10
0.0
 20
0.0
 30
0.0
  9
$UCSORGLEFT
 10
0.0
 20
0.0
 30
0.0
  9
$UCSORGRIGHT
 10
0.0
 20
0.0
 30
0.0
  9
$UCSORGFRONT
 10
0.0
 20
0.0
 30
0.0
  9
$UCSORGBACK
 10
0.0
 20
0.0
 30
0.0
  9
$PUCSBASE
  2

  9
$PUCSNAME
  2

  9
$PUCSORG
 10
0.0
 20
0.0
 30
0.0
  9
$PUCSXDIR
 10
1.0
 20
0.0
 30
0.0
  9
$PUCSYDIR
 10
0.0
 20
1.0
 30
0.0
  9
$PUCSORTHOREF
  2

  9
$PUCSORTHOVIEW
 70
     0
  9
$PUCSORGTOP
 10
0.0
 20
0.0
 30
0.0
  9
$PUCSORGBOTTOM
 10
0.0
 20
0.0
 30
0.0
  9
$PUCSORGLEFT
 10
0.0
 20
0.0
 30
0.0
  9
$PUCSORGRIGHT
 10
0.0
 20
0.0
 30
0.0
  9
$PUCSORGFRONT
 10
0.0
 20
0.0
 30
0.0
  9
$PUCSORGBACK
 10
0.0
 20
0.0
 30
0.0
  9
$USERI1
 70
     0
  9
$USERI2
 70
     0
  9
$USERI3
 70
     0
  9
$USERI4
 70
     0
  9
$USERI5
 70
     0
  9
$USERR1
 40
0.0
  9
$USERR2
 40
0.0
  9
$USERR3
 40
0.0
  9
$USERR4
 40
0.0
  9
$USERR5
 40
0.0
  9
$WORLDVIEW
 70
     1
  9
$SHADEDGE
 70
     3
  9
$SHADEDIF
 70
    70
  9
$TILEMODE
 70
     1
  9
$MAXACTVP
 70
    64
  9
$PINSBASE
 10
0.0
 20
0.0
 30
0.0
  9
$PLIMCHECK
 70
     0
  9
$PEXTMIN
 10
1.000000000000000E+20
 20
1.000000000000000E+20
 30
1.000000000000000E+20
  9
$PEXTMAX
 10
-1.000000000000000E+20
 20
-1.000000000000000E+20
 30
-1.000000000000000E+20
  9
$PLIMMIN
 10
0.0
 20
0.0
  9
$PLIMMAX
 10
12.0
 20
9.0
  9
$UNITMODE
 70
     0
  9
$VISRETAIN
 70
     1
  9
$PLINEGEN
 70
     0
  9
$PSLTSCALE
 70
     1
  9
$TREEDEPTH
 70
  3020
  9
$CMLSTYLE
  2
Standard
  9
$CMLJUST
 70
     0
  9
$CMLSCALE
 40
1.0
  9
$PROXYGRAPHICS
 70
     1
  9
$MEASUREMENT
 70
     0
  9
$CELWEIGHT
370
    -1
  9
$ENDCAPS
280
     0
  9
$JOINSTYLE
280
     0
  9
$LWDISPLAY
290
     1
  9
$INSUNITS
 70
     1
  9
$HYPERLINKBASE
  1

  9
$STYLESHEET
  1

  9
$XEDIT
290
     1
  9
$CEPSNTYPE
380
     0
  9
$PSTYLEMODE
290
     1
  9
$FINGERPRINTGUID
  2
{91599F52-FF59-422A-ABA8-51F171972147}
  9
$VERSIONGUID
  2
{FAEB1C32-E019-11D5-929B-00C0DF256EC4}
  9
$EXTNAMES
290
     1
  9
$PSVPSCALE
 40
0.0
  9
$OLESTARTUP
290
     0
  9
$SORTENTS
280
   127
  9
$INDEXCTL
280
     0
  9
$HIDETEXT
280
     1
  9
$XCLIPFRAME
290
     0
  9
$HALOGAP
280
     0
  9
$OBSCOLOR
 70
   257
  9
$OBSLTYPE
280
     0
  9
$INTERSECTIONDISPLAY
280
     0
  9
$INTERSECTIONCOLOR
 70
   257
  9
$DIMASSOC
280
     2
  9
$PROJECTNAME
  1

  0
ENDSEC
  0
SECTION
  2
CLASSES
  0
CLASS
  1
ACDBDICTIONARYWDFLT
  2
AcDbDictionaryWithDefault
  3
ObjectDBX Classes
 90
        0
 91
        3
280
     0
281
     0
  0
CLASS
  1
VISUALSTYLE
  2
AcDbVisualStyle
  3
ObjectDBX Classes
 90
     4095
 91
        3
280
     0
281
     0
  0
ENDSEC
  0
SECTION
  2
TABLES
  0
TABLE
  2
VPORT
  5
8
330
0
100
AcDbSymbolTable
 70
     1
  0
VPORT
  5
29
330
8
100
AcDbSymbolTableRecord
100
AcDbViewportTableRecord
  2
*Active
 70
     0
 10
0.0
 20
0.0
 11
1.0
 21
1.0
 12
0.0
 22
0.0
 13
0.0
 23
0.0
 14
0.5
 24
0.5
 15
0.5
 25
0.5
 16
0.0
 26
0.0
 36
1.0
 17
104.425753418989
 27
-148.658195627983
 37
0.0
 40
33.73385822724362
 41
1.720936288852464
 42
50.0
 43
0.0
 44
0.0
 50
0.0
 51
0.0
 71
     0
 72
   100
 73
     1
 74
     3
 75
     0
 76
     0
 77
     0
 78
     0
281
     0
 65
     1
110
0.0
120
0.0
130
0.0
111
1.0
121
0.0
131
0.0
112
0.0
122
1.0
132
0.0
 79
     0
146
0.0
  0
ENDTAB
  0
TABLE
  2
LTYPE
  5
5
330
0
100
AcDbSymbolTable
 70
     3
  0
LTYPE
  5
14
330
5
100
AcDbSymbolTableRecord
100
AcDbLinetypeTableRecord
  2
ByBlock
 70
     0
  3

 72
    65
 73
     0
 40
0.0
  0
LTYPE
  5
15
330
5
100
AcDbSymbolTableRecord
100
AcDbLinetypeTableRecord
  2
ByLayer
 70
     0
  3

 72
    65
 73
     0
 40
0.0
  0
LTYPE
  5
16
330
5
100
AcDbSymbolTableRecord
100
AcDbLinetypeTableRecord
  2
Continuous
 70
     0
  3
Solid line
 72
    65
 73
     0
 40
0.0
  0
LTYPE
  5
305
330
5
100
AcDbSymbolTableRecord
100
AcDbLinetypeTableRecord
  2
AI-Linetype-1
 70
     0
  3
Adobe Illustrator Linetype No. 1
 72
    65
 73
     4
 40
3.003527692176994
 49
0.7499999786197374
 74
     0
 49
-1.499999957239475
 74
     0
 49
0.7499999786197374
 74
     0
 49
-0.0035277776980439
 74
     0
  0
LTYPE
  5
5E1
330
5
100
AcDbSymbolTableRecord
100
AcDbLinetypeTableRecord
  2
AI-Linetype-2
 70
     0
  3
Adobe Illustrator Linetype No. 2
 72
    65
 73
     4
 40
0.3035277817622553
 49
0.0750000010160529
 74
     0
 49
-0.1500000020321057
 74
     0
 49
0.0750000010160529
 74
     0
 49
-0.0035277776980439
 74
     0
  0
ENDTAB
  0
TABLE
  2
LAYER
  5
2
330
0
100
AcDbSymbolTable
 70
     2
  0
LAYER
  5
10
330
2
100
AcDbSymbolTableRecord
100
AcDbLayerTableRecord
  2
0
 70
     0
 62
     7
  6
Continuous
370
    -3
390
F
  0
LAYER
  5
3B
330
2
100
AcDbSymbolTableRecord
100
AcDbLayerTableRecord
  2
Capa 1
 70
     0
 62
     7
  6
Continuous
370
    -3
390
F
  0
ENDTAB
  0
TABLE
  2
STYLE
  5
3
330
0
100
AcDbSymbolTable
 70
     1
  0
STYLE
  5
11
330
3
100
AcDbSymbolTableRecord
100
AcDbTextStyleTableRecord
  2
Standard
 70
     0
 40
0.0
 41
1.0
 50
0.0
 71
     0
 42
0.2
  3
txt
  4

  0
ENDTAB
  0
TABLE
  2
VIEW
  5
6
330
0
100
AcDbSymbolTable
 70
     0
  0
ENDTAB
  0
TABLE
  2
UCS
  5
7
330
0
100
AcDbSymbolTable
 70
     0
  0
ENDTAB
  0
TABLE
  2
APPID
  5
9
330
0
100
AcDbSymbolTable
 70
     1
  0
APPID
  5
12
330
9
100
AcDbSymbolTableRecord
100
AcDbRegAppTableRecord
  2
ACAD
 70
     0
  0
ENDTAB
  0
TABLE
  2
DIMSTYLE
  5
A
330
0
100
AcDbSymbolTable
 70
     1
100
AcDbDimStyleTable
  0
DIMSTYLE
105
27
330
A
100
AcDbSymbolTableRecord
100
AcDbDimStyleTableRecord
  2
Standard
 70
     0
340
11
  0
ENDTAB
  0
TABLE
  2
BLOCK_RECORD
  5
1
330
0
100
AcDbSymbolTable
 70
   164
  0
BLOCK_RECORD
  5
1F
330
1
100
AcDbSymbolTableRecord
100
AcDbBlockTableRecord
  2
*Model_Space
340
22
  0
BLOCK_RECORD
  5
1B
330
1
100
AcDbSymbolTableRecord
100
AcDbBlockTableRecord
  2
*Paper_Space
340
1E
  0
BLOCK_RECORD
  5
23
330
1
100
AcDbSymbolTableRecord
100
AcDbBlockTableRecord
  2
*Paper_Space0
340
26
  0
BLOCK_RECORD
  5
3C
330
1
100
AcDbSymbolTableRecord
100
AcDbBlockTableRecord
  2
block 2
340
0
102
{BLKREFS
331
3D
102
}
  0
BLOCK_RECORD
  5
47
330
1
100
AcDbSymbolTableRecord
100
AcDbBlockTableRecord
  2
block 3
340
0
102
{BLKREFS
331
48
102
}
  0
BLOCK_RECORD
  5
4F
330
1
100
AcDbSymbolTableRecord
100
AcDbBlockTableRecord
  2
block 4
340
0
102
{BLKREFS
331
50
102
}
  0
BLOCK_RECORD
  5
57
330
1
100
AcDbSymbolTableRecord
100
AcDbBlockTableRecord
  2
block 5
340
0
102
{BLKREFS
331
58
102
}
  0
BLOCK_RECORD
  5
5F
330
1
100
AcDbSymbolTableRecord
100
AcDbBlockTableRecord
  2
block 6
340
0
102
{BLKREFS
331
60
102
}
  0
BLOCK_RECORD
  5
67
330
1
100
AcDbSymbolTableRecord
100
AcDbBlockTableRecord
  2
block 7
340
0
102
{BLKREFS
331
68
102
}
  0
BLOCK_RECORD
  5
6F
330
1
100
AcDbSymbolTableRecord
100
AcDbBlockTableRecord
  2
block 8
340
0
102
{BLKREFS
331
70
102
}
  0
BLOCK_RECORD
  5
77
330
1
100
AcDbSymbolTableRecord
100
AcDbBlockTableRecord
  2
block 9
340
0
102
{BLKREFS
331
78
102
}
  0
BLOCK_RECORD
  5
7F
330
1
100
AcDbSymbolTableRecord
100
AcDbBlockTableRecord
  2
block 10
340
0
102
{BLKREFS
331
80
102
}
  0
BLOCK_RECORD
  5
87
330
1
100
AcDbSymbolTableRecord
100
AcDbBlockTableRecord
  2
block 11
340
0
102
{BLKREFS
331
88
102
}
  0
BLOCK_RECORD
  5
8F
330
1
100
AcDbSymbolTableRecord
100
AcDbBlockTableRecord
  2
block 12
340
0
102
{BLKREFS
331
90
102
}
  0
BLOCK_RECORD
  5
97
330
1
100
AcDbSymbolTableRecord
100
AcDbBlockTableRecord
  2
block 13
340
0
102
{BLKREFS
331
98
102
}
  0
BLOCK_RECORD
  5
9F
330
1
100
AcDbSymbolTableRecord
100
AcDbBlockTableRecord
  2
block 14
340
0
102
{BLKREFS
331
A0
102
}
  0
BLOCK_RECORD
  5
A7
330
1
100
AcDbSymbolTableRecord
100
AcDbBlockTableRecord
  2
block 15
340
0
102
{BLKREFS
331
A8
102
}
  0
BLOCK_RECORD
  5
AF
330
1
100
AcDbSymbolTableRecord
100
AcDbBlockTableRecord
  2
block 16
340
0
102
{BLKREFS
331
B0
102
}
  0
BLOCK_RECORD
  5
B7
330
1
100
AcDbSymbolTableRecord
100
AcDbBlockTableRecord
  2
block 17
340
0
102
{BLKREFS
331
B8
102
}
  0
BLOCK_RECORD
  5
BF
330
1
100
AcDbSymbolTableRecord
100
AcDbBlockTableRecord
  2
block 18
340
0
102
{BLKREFS
331
C0
102
}
  0
BLOCK_RECORD
  5
C7
330
1
100
AcDbSymbolTableRecord
100
AcDbBlockTableRecord
  2
block 19
340
0
102
{BLKREFS
331
C8
102
}
  0
BLOCK_RECORD
  5
CF
330
1
100
AcDbSymbolTableRecord
100
AcDbBlockTableRecord
  2
block 20
340
0
102
{BLKREFS
331
D0
102
}
  0
BLOCK_RECORD
  5
D7
330
1
100
AcDbSymbolTableRecord
100
AcDbBlockTableRecord
  2
block 21
340
0
102
{BLKREFS
331
D8
102
}
  0
BLOCK_RECORD
  5
DF
330
1
100
AcDbSymbolTableRecord
100
AcDbBlockTableRecord
  2
block 22
340
0
102
{BLKREFS
331
E0
102
}
  0
BLOCK_RECORD
  5
E7
330
1
100
AcDbSymbolTableRecord
100
AcDbBlockTableRecord
  2
block 23
340
0
102
{BLKREFS
331
E8
102
}
  0
BLOCK_RECORD
  5
EF
330
1
100
AcDbSymbolTableRecord
100
AcDbBlockTableRecord
  2
block 24
340
0
102
{BLKREFS
331
F0
102
}
  0
BLOCK_RECORD
  5
F7
330
1
100
AcDbSymbolTableRecord
100
AcDbBlockTableRecord
  2
block 25
340
0
102
{BLKREFS
331
F8
102
}
  0
BLOCK_RECORD
  5
FF
330
1
100
AcDbSymbolTableRecord
100
AcDbBlockTableRecord
  2
block 26
340
0
102
{BLKREFS
331
100
102
}
  0
BLOCK_RECORD
  5
107
330
1
100
AcDbSymbolTableRecord
100
AcDbBlockTableRecord
  2
block 27
340
0
102
{BLKREFS
331
108
102
}
  0
BLOCK_RECORD
  5
10F
330
1
100
AcDbSymbolTableRecord
100
AcDbBlockTableRecord
  2
block 28
340
0
102
{BLKREFS
331
110
102
}
  0
BLOCK_RECORD
  5
117
330
1
100
AcDbSymbolTableRecord
100
AcDbBlockTableRecord
  2
block 29
340
0
102
{BLKREFS
331
118
102
}
  0
BLOCK_RECORD
  5
11F
330
1
100
AcDbSymbolTableRecord
100
AcDbBlockTableRecord
  2
block 30
340
0
102
{BLKREFS
331
120
102
}
  0
BLOCK_RECORD
  5
127
330
1
100
AcDbSymbolTableRecord
100
AcDbBlockTableRecord
  2
block 31
340
0
102
{BLKREFS
331
128
102
}
  0
BLOCK_RECORD
  5
12F
330
1
100
AcDbSymbolTableRecord
100
AcDbBlockTableRecord
  2
block 32
340
0
102
{BLKREFS
331
130
102
}
  0
BLOCK_RECORD
  5
137
330
1
100
AcDbSymbolTableRecord
100
AcDbBlockTableRecord
  2
block 33
340
0
102
{BLKREFS
331
138
102
}
  0
BLOCK_RECORD
  5
13F
330
1
100
AcDbSymbolTableRecord
100
AcDbBlockTableRecord
  2
block 34
340
0
102
{BLKREFS
331
140
102
}
  0
BLOCK_RECORD
  5
147
330
1
100
AcDbSymbolTableRecord
100
AcDbBlockTableRecord
  2
block 35
340
0
102
{BLKREFS
331
148
102
}
  0
BLOCK_RECORD
  5
14F
330
1
100
AcDbSymbolTableRecord
100
AcDbBlockTableRecord
  2
block 36
340
0
102
{BLKREFS
331
150
102
}
  0
BLOCK_RECORD
  5
157
330
1
100
AcDbSymbolTableRecord
100
AcDbBlockTableRecord
  2
block 37
340
0
102
{BLKREFS
331
158
102
}
  0
BLOCK_RECORD
  5
15F
330
1
100
AcDbSymbolTableRecord
100
AcDbBlockTableRecord
  2
block 38
340
0
102
{BLKREFS
331
160
102
}
  0
BLOCK_RECORD
  5
167
330
1
100
AcDbSymbolTableRecord
100
AcDbBlockTableRecord
  2
block 39
340
0
102
{BLKREFS
331
168
102
}
  0
BLOCK_RECORD
  5
16F
330
1
100
AcDbSymbolTableRecord
100
AcDbBlockTableRecord
  2
block 40
340
0
102
{BLKREFS
331
170
102
}
  0
BLOCK_RECORD
  5
177
330
1
100
AcDbSymbolTableRecord
100
AcDbBlockTableRecord
  2
block 41
340
0
102
{BLKREFS
331
178
102
}
  0
BLOCK_RECORD
  5
17F
330
1
100
AcDbSymbolTableRecord
100
AcDbBlockTableRecord
  2
block 42
340
0
102
{BLKREFS
331
180
102
}
  0
BLOCK_RECORD
  5
187
330
1
100
AcDbSymbolTableRecord
100
AcDbBlockTableRecord
  2
block 43
340
0
102
{BLKREFS
331
188
102
}
  0
BLOCK_RECORD
  5
18F
330
1
100
AcDbSymbolTableRecord
100
AcDbBlockTableRecord
  2
block 44
340
0
102
{BLKREFS
331
190
102
}
  0
BLOCK_RECORD
  5
197
330
1
100
AcDbSymbolTableRecord
100
AcDbBlockTableRecord
  2
block 45
340
0
102
{BLKREFS
331
198
102
}
  0
BLOCK_RECORD
  5
19F
330
1
100
AcDbSymbolTableRecord
100
AcDbBlockTableRecord
  2
block 46
340
0
102
{BLKREFS
331
1A0
102
}
  0
BLOCK_RECORD
  5
1A4
330
1
100
AcDbSymbolTableRecord
100
AcDbBlockTableRecord
  2
block 47
340
0
102
{BLKREFS
331
1A5
102
}
  0
BLOCK_RECORD
  5
1AC
330
1
100
AcDbSymbolTableRecord
100
AcDbBlockTableRecord
  2
block 48
340
0
102
{BLKREFS
331
1AD
102
}
  0
BLOCK_RECORD
  5
1B4
330
1
100
AcDbSymbolTableRecord
100
AcDbBlockTableRecord
  2
block 49
340
0
102
{BLKREFS
331
1B5
102
}
  0
BLOCK_RECORD
  5
1B9
330
1
100
AcDbSymbolTableRecord
100
AcDbBlockTableRecord
  2
block 50
340
0
102
{BLKREFS
331
1BA
102
}
  0
BLOCK_RECORD
  5
1C1
330
1
100
AcDbSymbolTableRecord
100
AcDbBlockTableRecord
  2
block 51
340
0
102
{BLKREFS
331
1C2
102
}
  0
BLOCK_RECORD
  5
1C9
330
1
100
AcDbSymbolTableRecord
100
AcDbBlockTableRecord
  2
block 52
340
0
102
{BLKREFS
331
1CA
102
}
  0
BLOCK_RECORD
  5
1D1
330
1
100
AcDbSymbolTableRecord
100
AcDbBlockTableRecord
  2
block 53
340
0
102
{BLKREFS
331
1D2
102
}
  0
BLOCK_RECORD
  5
1D9
330
1
100
AcDbSymbolTableRecord
100
AcDbBlockTableRecord
  2
block 54
340
0
102
{BLKREFS
331
1DA
102
}
  0
BLOCK_RECORD
  5
1E1
330
1
100
AcDbSymbolTableRecord
100
AcDbBlockTableRecord
  2
block 55
340
0
102
{BLKREFS
331
1E2
102
}
  0
BLOCK_RECORD
  5
1E9
330
1
100
AcDbSymbolTableRecord
100
AcDbBlockTableRecord
  2
block 56
340
0
102
{BLKREFS
331
1EA
102
}
  0
BLOCK_RECORD
  5
1EE
330
1
100
AcDbSymbolTableRecord
100
AcDbBlockTableRecord
  2
block 57
340
0
102
{BLKREFS
331
1EF
102
}
  0
BLOCK_RECORD
  5
1F3
330
1
100
AcDbSymbolTableRecord
100
AcDbBlockTableRecord
  2
block 58
340
0
102
{BLKREFS
331
1F4
102
}
  0
BLOCK_RECORD
  5
1F8
330
1
100
AcDbSymbolTableRecord
100
AcDbBlockTableRecord
  2
block 59
340
0
102
{BLKREFS
331
1F9
102
}
  0
BLOCK_RECORD
  5
200
330
1
100
AcDbSymbolTableRecord
100
AcDbBlockTableRecord
  2
block 60
340
0
102
{BLKREFS
331
201
102
}
  0
BLOCK_RECORD
  5
208
330
1
100
AcDbSymbolTableRecord
100
AcDbBlockTableRecord
  2
block 61
340
0
102
{BLKREFS
331
209
102
}
  0
BLOCK_RECORD
  5
210
330
1
100
AcDbSymbolTableRecord
100
AcDbBlockTableRecord
  2
block 62
340
0
102
{BLKREFS
331
211
102
}
  0
BLOCK_RECORD
  5
218
330
1
100
AcDbSymbolTableRecord
100
AcDbBlockTableRecord
  2
block 63
340
0
102
{BLKREFS
331
219
102
}
  0
BLOCK_RECORD
  5
220
330
1
100
AcDbSymbolTableRecord
100
AcDbBlockTableRecord
  2
block 64
340
0
102
{BLKREFS
331
221
102
}
  0
BLOCK_RECORD
  5
228
330
1
100
AcDbSymbolTableRecord
100
AcDbBlockTableRecord
  2
block 65
340
0
102
{BLKREFS
331
229
102
}
  0
BLOCK_RECORD
  5
230
330
1
100
AcDbSymbolTableRecord
100
AcDbBlockTableRecord
  2
block 66
340
0
102
{BLKREFS
331
231
102
}
  0
BLOCK_RECORD
  5
238
330
1
100
AcDbSymbolTableRecord
100
AcDbBlockTableRecord
  2
block 67
340
0
102
{BLKREFS
331
239
102
}
  0
BLOCK_RECORD
  5
240
330
1
100
AcDbSymbolTableRecord
100
AcDbBlockTableRecord
  2
block 68
340
0
102
{BLKREFS
331
241
102
}
  0
BLOCK_RECORD
  5
245
330
1
100
AcDbSymbolTableRecord
100
AcDbBlockTableRecord
  2
block 69
340
0
102
{BLKREFS
331
246
102
}
  0
BLOCK_RECORD
  5
24D
330
1
100
AcDbSymbolTableRecord
100
AcDbBlockTableRecord
  2
block 70
340
0
102
{BLKREFS
331
24E
102
}
  0
BLOCK_RECORD
  5
255
330
1
100
AcDbSymbolTableRecord
100
AcDbBlockTableRecord
  2
block 71
340
0
102
{BLKREFS
331
256
102
}
  0
BLOCK_RECORD
  5
25D
330
1
100
AcDbSymbolTableRecord
100
AcDbBlockTableRecord
  2
block 72
340
0
102
{BLKREFS
331
25E
102
}
  0
BLOCK_RECORD
  5
265
330
1
100
AcDbSymbolTableRecord
100
AcDbBlockTableRecord
  2
block 73
340
0
102
{BLKREFS
331
266
102
}
  0
BLOCK_RECORD
  5
26D
330
1
100
AcDbSymbolTableRecord
100
AcDbBlockTableRecord
  2
block 74
340
0
102
{BLKREFS
331
26E
102
}
  0
BLOCK_RECORD
  5
275
330
1
100
AcDbSymbolTableRecord
100
AcDbBlockTableRecord
  2
block 75
340
0
102
{BLKREFS
331
276
102
}
  0
BLOCK_RECORD
  5
27D
330
1
100
AcDbSymbolTableRecord
100
AcDbBlockTableRecord
  2
block 76
340
0
102
{BLKREFS
331
27E
102
}
  0
BLOCK_RECORD
  5
285
330
1
100
AcDbSymbolTableRecord
100
AcDbBlockTableRecord
  2
block 77
340
0
102
{BLKREFS
331
286
102
}
  0
BLOCK_RECORD
  5
28D
330
1
100
AcDbSymbolTableRecord
100
AcDbBlockTableRecord
  2
block 78
340
0
102
{BLKREFS
331
28E
102
}
  0
BLOCK_RECORD
  5
292
330
1
100
AcDbSymbolTableRecord
100
AcDbBlockTableRecord
  2
block 79
340
0
102
{BLKREFS
331
293
102
}
  0
BLOCK_RECORD
  5
297
330
1
100
AcDbSymbolTableRecord
100
AcDbBlockTableRecord
  2
block 80
340
0
102
{BLKREFS
331
298
102
}
  0
BLOCK_RECORD
  5
29F
330
1
100
AcDbSymbolTableRecord
100
AcDbBlockTableRecord
  2
block 81
340
0
102
{BLKREFS
331
2A0
102
}
  0
BLOCK_RECORD
  5
2A4
330
1
100
AcDbSymbolTableRecord
100
AcDbBlockTableRecord
  2
block 82
340
0
102
{BLKREFS
331
2A5
102
}
  0
BLOCK_RECORD
  5
2A9
330
1
100
AcDbSymbolTableRecord
100
AcDbBlockTableRecord
  2
block 83
340
0
102
{BLKREFS
331
2AA
102
}
  0
BLOCK_RECORD
  5
2B1
330
1
100
AcDbSymbolTableRecord
100
AcDbBlockTableRecord
  2
block 84
340
0
102
{BLKREFS
331
2B2
102
}
  0
BLOCK_RECORD
  5
2B9
330
1
100
AcDbSymbolTableRecord
100
AcDbBlockTableRecord
  2
block 85
340
0
102
{BLKREFS
331
2BA
102
}
  0
BLOCK_RECORD
  5
2C1
330
1
100
AcDbSymbolTableRecord
100
AcDbBlockTableRecord
  2
block 86
340
0
102
{BLKREFS
331
2C2
102
}
  0
BLOCK_RECORD
  5
2C6
330
1
100
AcDbSymbolTableRecord
100
AcDbBlockTableRecord
  2
block 87
340
0
102
{BLKREFS
331
2C7
102
}
  0
BLOCK_RECORD
  5
2CB
330
1
100
AcDbSymbolTableRecord
100
AcDbBlockTableRecord
  2
block 88
340
0
102
{BLKREFS
331
2CC
102
}
  0
BLOCK_RECORD
  5
2D0
330
1
100
AcDbSymbolTableRecord
100
AcDbBlockTableRecord
  2
block 89
340
0
102
{BLKREFS
331
2D1
102
}
  0
BLOCK_RECORD
  5
2D8
330
1
100
AcDbSymbolTableRecord
100
AcDbBlockTableRecord
  2
block 90
340
0
102
{BLKREFS
331
2D9
102
}
  0
BLOCK_RECORD
  5
2E0
330
1
100
AcDbSymbolTableRecord
100
AcDbBlockTableRecord
  2
block 91
340
0
102
{BLKREFS
331
2E1
102
}
  0
BLOCK_RECORD
  5
2E8
330
1
100
AcDbSymbolTableRecord
100
AcDbBlockTableRecord
  2
block 92
340
0
102
{BLKREFS
331
2E9
102
}
  0
BLOCK_RECORD
  5
2F0
330
1
100
AcDbSymbolTableRecord
100
AcDbBlockTableRecord
  2
block 93
340
0
102
{BLKREFS
331
2F1
102
}
  0
BLOCK_RECORD
  5
2F8
330
1
100
AcDbSymbolTableRecord
100
AcDbBlockTableRecord
  2
block 94
340
0
102
{BLKREFS
331
2F9
102
}
  0
BLOCK_RECORD
  5
300
330
1
100
AcDbSymbolTableRecord
100
AcDbBlockTableRecord
  2
block 95
340
0
102
{BLKREFS
331
301
102
}
  0
BLOCK_RECORD
  5
306
330
1
100
AcDbSymbolTableRecord
100
AcDbBlockTableRecord
  2
block 96
340
0
102
{BLKREFS
331
307
102
}
  0
BLOCK_RECORD
  5
30B
330
1
100
AcDbSymbolTableRecord
100
AcDbBlockTableRecord
  2
block 97
340
0
102
{BLKREFS
331
30C
102
}
  0
BLOCK_RECORD
  5
310
330
1
100
AcDbSymbolTableRecord
100
AcDbBlockTableRecord
  2
block 98
340
0
102
{BLKREFS
331
311
102
}
  0
BLOCK_RECORD
  5
315
330
1
100
AcDbSymbolTableRecord
100
AcDbBlockTableRecord
  2
block 99
340
0
102
{BLKREFS
331
316
102
}
  0
BLOCK_RECORD
  5
31A
330
1
100
AcDbSymbolTableRecord
100
AcDbBlockTableRecord
  2
block 100
340
0
102
{BLKREFS
331
31B
102
}
  0
BLOCK_RECORD
  5
322
330
1
100
AcDbSymbolTableRecord
100
AcDbBlockTableRecord
  2
block 101
340
0
102
{BLKREFS
331
323
102
}
  0
BLOCK_RECORD
  5
32A
330
1
100
AcDbSymbolTableRecord
100
AcDbBlockTableRecord
  2
block 102
340
0
102
{BLKREFS
331
32B
102
}
  0
BLOCK_RECORD
  5
332
330
1
100
AcDbSymbolTableRecord
100
AcDbBlockTableRecord
  2
block 103
340
0
102
{BLKREFS
331
333
102
}
  0
BLOCK_RECORD
  5
33A
330
1
100
AcDbSymbolTableRecord
100
AcDbBlockTableRecord
  2
block 104
340
0
102
{BLKREFS
331
33B
102
}
  0
BLOCK_RECORD
  5
33F
330
1
100
AcDbSymbolTableRecord
100
AcDbBlockTableRecord
  2
block 105
340
0
102
{BLKREFS
331
340
102
}
  0
BLOCK_RECORD
  5
347
330
1
100
AcDbSymbolTableRecord
100
AcDbBlockTableRecord
  2
block 106
340
0
102
{BLKREFS
331
348
102
}
  0
BLOCK_RECORD
  5
34F
330
1
100
AcDbSymbolTableRecord
100
AcDbBlockTableRecord
  2
block 107
340
0
102
{BLKREFS
331
350
102
}
  0
BLOCK_RECORD
  5
354
330
1
100
AcDbSymbolTableRecord
100
AcDbBlockTableRecord
  2
block 108
340
0
102
{BLKREFS
331
355
102
}
  0
BLOCK_RECORD
  5
35C
330
1
100
AcDbSymbolTableRecord
100
AcDbBlockTableRecord
  2
block 109
340
0
102
{BLKREFS
331
35D
102
}
  0
BLOCK_RECORD
  5
364
330
1
100
AcDbSymbolTableRecord
100
AcDbBlockTableRecord
  2
block 110
340
0
102
{BLKREFS
331
365
102
}
  0
BLOCK_RECORD
  5
36C
330
1
100
AcDbSymbolTableRecord
100
AcDbBlockTableRecord
  2
block 111
340
0
102
{BLKREFS
331
36D
102
}
  0
BLOCK_RECORD
  5
374
330
1
100
AcDbSymbolTableRecord
100
AcDbBlockTableRecord
  2
block 112
340
0
102
{BLKREFS
331
375
102
}
  0
BLOCK_RECORD
  5
379
330
1
100
AcDbSymbolTableRecord
100
AcDbBlockTableRecord
  2
block 113
340
0
102
{BLKREFS
331
37A
102
}
  0
BLOCK_RECORD
  5
392
330
1
100
AcDbSymbolTableRecord
100
AcDbBlockTableRecord
  2
block 114
340
0
102
{BLKREFS
331
393
102
}
  0
BLOCK_RECORD
  5
39A
330
1
100
AcDbSymbolTableRecord
100
AcDbBlockTableRecord
  2
block 115
340
0
102
{BLKREFS
331
39B
102
}
  0
BLOCK_RECORD
  5
39F
330
1
100
AcDbSymbolTableRecord
100
AcDbBlockTableRecord
  2
block 116
340
0
102
{BLKREFS
331
3A0
102
}
  0
BLOCK_RECORD
  5
3A7
330
1
100
AcDbSymbolTableRecord
100
AcDbBlockTableRecord
  2
block 117
340
0
102
{BLKREFS
331
3A8
102
}
  0
BLOCK_RECORD
  5
3AF
330
1
100
AcDbSymbolTableRecord
100
AcDbBlockTableRecord
  2
block 118
340
0
102
{BLKREFS
331
3B0
102
}
  0
BLOCK_RECORD
  5
3B7
330
1
100
AcDbSymbolTableRecord
100
AcDbBlockTableRecord
  2
block 119
340
0
102
{BLKREFS
331
3B8
102
}
  0
BLOCK_RECORD
  5
3BF
330
1
100
AcDbSymbolTableRecord
100
AcDbBlockTableRecord
  2
block 120
340
0
102
{BLKREFS
331
3C0
102
}
  0
BLOCK_RECORD
  5
3C7
330
1
100
AcDbSymbolTableRecord
100
AcDbBlockTableRecord
  2
block 121
340
0
102
{BLKREFS
331
3C8
102
}
  0
BLOCK_RECORD
  5
3CF
330
1
100
AcDbSymbolTableRecord
100
AcDbBlockTableRecord
  2
block 122
340
0
102
{BLKREFS
331
3D0
102
}
  0
BLOCK_RECORD
  5
3D7
330
1
100
AcDbSymbolTableRecord
100
AcDbBlockTableRecord
  2
block 123
340
0
102
{BLKREFS
331
3D8
102
}
  0
BLOCK_RECORD
  5
3DC
330
1
100
AcDbSymbolTableRecord
100
AcDbBlockTableRecord
  2
block 124
340
0
102
{BLKREFS
331
3DD
102
}
  0
BLOCK_RECORD
  5
3E1
330
1
100
AcDbSymbolTableRecord
100
AcDbBlockTableRecord
  2
block 125
340
0
102
{BLKREFS
331
3E2
102
}
  0
BLOCK_RECORD
  5
3E6
330
1
100
AcDbSymbolTableRecord
100
AcDbBlockTableRecord
  2
block 126
340
0
102
{BLKREFS
331
3E7
102
}
  0
BLOCK_RECORD
  5
42E
330
1
100
AcDbSymbolTableRecord
100
AcDbBlockTableRecord
  2
block 127
340
0
102
{BLKREFS
331
42F
102
}
  0
BLOCK_RECORD
  5
436
330
1
100
AcDbSymbolTableRecord
100
AcDbBlockTableRecord
  2
block 128
340
0
102
{BLKREFS
331
437
102
}
  0
BLOCK_RECORD
  5
43B
330
1
100
AcDbSymbolTableRecord
100
AcDbBlockTableRecord
  2
block 129
340
0
102
{BLKREFS
331
43C
102
}
  0
BLOCK_RECORD
  5
443
330
1
100
AcDbSymbolTableRecord
100
AcDbBlockTableRecord
  2
block 130
340
0
102
{BLKREFS
331
444
102
}
  0
BLOCK_RECORD
  5
448
330
1
100
AcDbSymbolTableRecord
100
AcDbBlockTableRecord
  2
block 131
340
0
102
{BLKREFS
331
449
102
}
  0
BLOCK_RECORD
  5
450
330
1
100
AcDbSymbolTableRecord
100
AcDbBlockTableRecord
  2
block 132
340
0
102
{BLKREFS
331
451
102
}
  0
BLOCK_RECORD
  5
458
330
1
100
AcDbSymbolTableRecord
100
AcDbBlockTableRecord
  2
block 133
340
0
102
{BLKREFS
331
459
102
}
  0
BLOCK_RECORD
  5
460
330
1
100
AcDbSymbolTableRecord
100
AcDbBlockTableRecord
  2
block 134
340
0
102
{BLKREFS
331
461
102
}
  0
BLOCK_RECORD
  5
468
330
1
100
AcDbSymbolTableRecord
100
AcDbBlockTableRecord
  2
block 135
340
0
102
{BLKREFS
331
469
102
}
  0
BLOCK_RECORD
  5
470
330
1
100
AcDbSymbolTableRecord
100
AcDbBlockTableRecord
  2
block 136
340
0
102
{BLKREFS
331
471
102
}
  0
BLOCK_RECORD
  5
478
330
1
100
AcDbSymbolTableRecord
100
AcDbBlockTableRecord
  2
block 137
340
0
102
{BLKREFS
331
479
102
}
  0
BLOCK_RECORD
  5
480
330
1
100
AcDbSymbolTableRecord
100
AcDbBlockTableRecord
  2
block 138
340
0
102
{BLKREFS
331
481
102
}
  0
BLOCK_RECORD
  5
488
330
1
100
AcDbSymbolTableRecord
100
AcDbBlockTableRecord
  2
block 139
340
0
102
{BLKREFS
331
489
102
}
  0
BLOCK_RECORD
  5
4BC
330
1
100
AcDbSymbolTableRecord
100
AcDbBlockTableRecord
  2
block 140
340
0
102
{BLKREFS
331
4BD
102
}
  0
BLOCK_RECORD
  5
4F4
330
1
100
AcDbSymbolTableRecord
100
AcDbBlockTableRecord
  2
block 141
340
0
102
{BLKREFS
331
4F5
102
}
  0
BLOCK_RECORD
  5
4FC
330
1
100
AcDbSymbolTableRecord
100
AcDbBlockTableRecord
  2
block 142
340
0
102
{BLKREFS
331
4FD
102
}
  0
BLOCK_RECORD
  5
504
330
1
100
AcDbSymbolTableRecord
100
AcDbBlockTableRecord
  2
block 143
340
0
102
{BLKREFS
331
505
102
}
  0
BLOCK_RECORD
  5
50C
330
1
100
AcDbSymbolTableRecord
100
AcDbBlockTableRecord
  2
block 144
340
0
102
{BLKREFS
331
50D
102
}
  0
BLOCK_RECORD
  5
514
330
1
100
AcDbSymbolTableRecord
100
AcDbBlockTableRecord
  2
block 145
340
0
102
{BLKREFS
331
515
102
}
  0
BLOCK_RECORD
  5
51C
330
1
100
AcDbSymbolTableRecord
100
AcDbBlockTableRecord
  2
block 146
340
0
102
{BLKREFS
331
51D
102
}
  0
BLOCK_RECORD
  5
524
330
1
100
AcDbSymbolTableRecord
100
AcDbBlockTableRecord
  2
block 147
340
0
102
{BLKREFS
331
525
102
}
  0
BLOCK_RECORD
  5
52C
330
1
100
AcDbSymbolTableRecord
100
AcDbBlockTableRecord
  2
block 148
340
0
102
{BLKREFS
331
52D
102
}
  0
BLOCK_RECORD
  5
534
330
1
100
AcDbSymbolTableRecord
100
AcDbBlockTableRecord
  2
block 149
340
0
102
{BLKREFS
331
535
102
}
  0
BLOCK_RECORD
  5
53C
330
1
100
AcDbSymbolTableRecord
100
AcDbBlockTableRecord
  2
block 150
340
0
102
{BLKREFS
331
53D
102
}
  0
BLOCK_RECORD
  5
544
330
1
100
AcDbSymbolTableRecord
100
AcDbBlockTableRecord
  2
block 151
340
0
102
{BLKREFS
331
545
102
}
  0
BLOCK_RECORD
  5
54C
330
1
100
AcDbSymbolTableRecord
100
AcDbBlockTableRecord
  2
block 152
340
0
102
{BLKREFS
331
54D
102
}
  0
BLOCK_RECORD
  5
554
330
1
100
AcDbSymbolTableRecord
100
AcDbBlockTableRecord
  2
block 153
340
0
102
{BLKREFS
331
555
102
}
  0
BLOCK_RECORD
  5
55C
330
1
100
AcDbSymbolTableRecord
100
AcDbBlockTableRecord
  2
block 154
340
0
102
{BLKREFS
331
55D
102
}
  0
BLOCK_RECORD
  5
564
330
1
100
AcDbSymbolTableRecord
100
AcDbBlockTableRecord
  2
block 155
340
0
102
{BLKREFS
331
565
102
}
  0
BLOCK_RECORD
  5
56C
330
1
100
AcDbSymbolTableRecord
100
AcDbBlockTableRecord
  2
block 156
340
0
102
{BLKREFS
331
56D
102
}
  0
BLOCK_RECORD
  5
574
330
1
100
AcDbSymbolTableRecord
100
AcDbBlockTableRecord
  2
block 157
340
0
102
{BLKREFS
331
575
102
}
  0
BLOCK_RECORD
  5
57C
330
1
100
AcDbSymbolTableRecord
100
AcDbBlockTableRecord
  2
block 158
340
0
102
{BLKREFS
331
57D
102
}
  0
BLOCK_RECORD
  5
584
330
1
100
AcDbSymbolTableRecord
100
AcDbBlockTableRecord
  2
block 159
340
0
102
{BLKREFS
331
585
102
}
  0
BLOCK_RECORD
  5
5BC
330
1
100
AcDbSymbolTableRecord
100
AcDbBlockTableRecord
  2
block 160
340
0
102
{BLKREFS
331
5BD
102
}
  0
BLOCK_RECORD
  5
5C4
330
1
100
AcDbSymbolTableRecord
100
AcDbBlockTableRecord
  2
block 161
340
0
102
{BLKREFS
331
5C5
102
}
  0
BLOCK_RECORD
  5
5CC
330
1
100
AcDbSymbolTableRecord
100
AcDbBlockTableRecord
  2
block 162
340
0
102
{BLKREFS
331
5CD
102
}
  0
BLOCK_RECORD
  5
5D4
330
1
100
AcDbSymbolTableRecord
100
AcDbBlockTableRecord
  2
block 163
340
0
102
{BLKREFS
331
5D5
102
}
  0
BLOCK_RECORD
  5
5DC
330
1
100
AcDbSymbolTableRecord
100
AcDbBlockTableRecord
  2
block 164
340
0
102
{BLKREFS
331
5DD
102
}
  0
ENDTAB
  0
ENDSEC
  0
SECTION
  2
BLOCKS
  0
BLOCK
  5
20
330
1F
100
AcDbEntity
  8
0
100
AcDbBlockBegin
  2
*Model_Space
 70
     0
 71
     0
 10
0.0
 20
0.0
 30
0.0
  3
*Model_Space
  1

  0
ENDBLK
  5
21
330
1F
100
AcDbEntity
  8
0
100
AcDbBlockEnd
  0
BLOCK
  5
1C
330
1B
100
AcDbEntity
 67
     1
  8
0
100
AcDbBlockBegin
  2
*Paper_Space
 70
     0
 71
     0
 10
0.0
 20
0.0
 30
0.0
  3
*Paper_Space
  1

  0
ENDBLK
  5
1D
330
1B
100
AcDbEntity
 67
     1
  8
0
100
AcDbBlockEnd
  0
BLOCK
  5
24
330
23
100
AcDbEntity
  8
0
100
AcDbBlockBegin
  2
*Paper_Space0
 70
     0
 71
     0
 10
0.0
 20
0.0
 30
0.0
  3
*Paper_Space0
  1

  0
ENDBLK
  5
25
330
23
100
AcDbEntity
  8
0
100
AcDbBlockEnd
  0
BLOCK
  5
3E
330
3C
100
AcDbEntity
  8
0
100
AcDbBlockBegin
  2
block 2
 70
     0
 71
     0
 10
0.0
 20
0.0
 30
0.0
  3
block 2
  1

  0
POLYLINE
  5
40
330
3C
100
AcDbEntity
  8
Capa 1
370
     0
100
AcDb2dPolyline
 66
     1
 10
0.0
 20
0.0
 30
0.0
  0
VERTEX
  5
41
330
40
100
AcDbEntity
  8
Capa 1
370
     0
100
AcDbVertex
100
AcDb2dVertex
 10
90.68576522255425
 20
-145.3472004844965
 30
0.0
  0
VERTEX
  5
42
330
40
100
AcDbEntity
  8
Capa 1
370
     0
100
AcDbVertex
100
AcDb2dVertex
 10
90.49146183718616
 20
-145.4767360747419
 30
0.0
  0
VERTEX
  5
43
330
40
100
AcDbEntity
  8
Capa 1
370
     0
100
AcDbVertex
100
AcDb2dVertex
 10
90.97635902673508
 20
-145.9948784357235
 30
0.0
  0
VERTEX
  5
44
330
40
100
AcDbEntity
  8
Capa 1
370
     0
100
AcDbVertex
100
AcDb2dVertex
 10
90.68576522255425
 20
-145.3472004844965
 30
0.0
  0
SEQEND
  5
45
330
40
100
AcDbEntity
  8
Capa 1
370
     0
  0
HATCH
  5
46
330
3C
100
AcDbEntity
  8
Capa 1
 62
   253
420
 11381932
100
AcDbHatch
 10
0.0
 20
0.0
 30
0.0
210
0.0
220
0.0
230
1.0
  2
SOLID
 70
     1
 71
     0
 91
        1
 92
        1
 93
        3
 72
     1
 10
90.68576522255425
 20
-145.3472004844965
 11
90.49146183718616
 21
-145.4767360747419
 72
     1
 10
90.49146183718616
 20
-145.4767360747419
 11
90.97635902673508
 21
-145.9948784357235
 72
     1
 10
90.97635902673508
 20
-145.9948784357235
 11
90.68576522255425
 21
-145.3472004844965
 97
        0
 75
     2
 76
     1
 98
        0
  0
ENDBLK
  5
3F
330
3C
100
AcDbEntity
  8
0
100
AcDbBlockEnd
  0
BLOCK
  5
49
330
47
100
AcDbEntity
  8
0
100
AcDbBlockBegin
  2
block 3
 70
     0
 71
     0
 10
0.0
 20
0.0
 30
0.0
  3
block 3
  1

  0
POLYLINE
  5
4B
330
47
100
AcDbEntity
  8
Capa 1
 62
     7
420
 16777215
370
    15
100
AcDb2dPolyline
 66
     1
 10
0.0
 20
0.0
 30
0.0
  0
VERTEX
  5
4C
330
4B
100
AcDbEntity
  8
Capa 1
 62
     7
420
 16777215
370
    15
100
AcDbVertex
100
AcDb2dVertex
 10
91.77941078434682
 20
-145.5235893733413
 30
0.0
  0
VERTEX
  5
4D
330
4B
100
AcDbEntity
  8
Capa 1
 62
     7
420
 16777215
370
    15
100
AcDbVertex
100
AcDb2dVertex
 10
91.77941078434682
 20
-145.6238416519621
 30
0.0
  0
SEQEND
  5
4E
330
4B
100
AcDbEntity
  8
Capa 1
370
    15
  0
ENDBLK
  5
4A
330
47
100
AcDbEntity
  8
0
100
AcDbBlockEnd
  0
BLOCK
  5
51
330
4F
100
AcDbEntity
  8
0
100
AcDbBlockBegin
  2
block 4
 70
     0
 71
     0
 10
0.0
 20
0.0
 30
0.0
  3
block 4
  1

  0
POLYLINE
  5
53
330
4F
100
AcDbEntity
  8
Capa 1
 62
     7
420
 16777215
370
    15
100
AcDb2dPolyline
 66
     1
 10
0.0
 20
0.0
 30
0.0
  0
VERTEX
  5
54
330
53
100
AcDbEntity
  8
Capa 1
 62
     7
420
 16777215
370
    15
100
AcDbVertex
100
AcDb2dVertex
 10
94.47933211613712
 20
-145.6238416519621
 30
0.0
  0
VERTEX
  5
55
330
53
100
AcDbEntity
  8
Capa 1
 62
     7
420
 16777215
370
    15
100
AcDbVertex
100
AcDb2dVertex
 10
94.47933211613712
 20
-145.5235893733413
 30
0.0
  0
SEQEND
  5
56
330
53
100
AcDbEntity
  8
Capa 1
370
    15
  0
ENDBLK
  5
52
330
4F
100
AcDbEntity
  8
0
100
AcDbBlockEnd
  0
BLOCK
  5
59
330
57
100
AcDbEntity
  8
0
100
AcDbBlockBegin
  2
block 5
 70
     0
 71
     0
 10
0.0
 20
0.0
 30
0.0
  3
block 5
  1

  0
POLYLINE
  5
5B
330
57
100
AcDbEntity
  8
Capa 1
 62
     7
420
 16777215
370
    15
100
AcDb2dPolyline
 66
     1
 10
0.0
 20
0.0
 30
0.0
  0
VERTEX
  5
5C
330
5B
100
AcDbEntity
  8
Capa 1
 62
     7
420
 16777215
370
    15
100
AcDbVertex
100
AcDb2dVertex
 10
95.298231312981
 20
-149.5736436258011
 30
0.0
  0
VERTEX
  5
5D
330
5B
100
AcDbEntity
  8
Capa 1
 62
     7
420
 16777215
370
    15
100
AcDbVertex
100
AcDb2dVertex
 10
95.82946503680652
 20
-149.5736436258011
 30
0.0
  0
SEQEND
  5
5E
330
5B
100
AcDbEntity
  8
Capa 1
370
    15
  0
ENDBLK
  5
5A
330
57
100
AcDbEntity
  8
0
100
AcDbBlockEnd
  0
BLOCK
  5
61
330
5F
100
AcDbEntity
  8
0
100
AcDbBlockBegin
  2
block 6
 70
     0
 71
     0
 10
0.0
 20
0.0
 30
0.0
  3
block 6
  1

  0
POLYLINE
  5
63
330
5F
100
AcDbEntity
  8
Capa 1
 62
     7
420
 16777215
370
    15
100
AcDb2dPolyline
 66
     1
 10
0.0
 20
0.0
 30
0.0
  0
VERTEX
  5
64
330
63
100
AcDbEntity
  8
Capa 1
 62
     7
420
 16777215
370
    15
100
AcDbVertex
100
AcDb2dVertex
 10
90.42945011845167
 20
-149.5736436258011
 30
0.0
  0
VERTEX
  5
65
330
63
100
AcDbEntity
  8
Capa 1
 62
     7
420
 16777215
370
    15
100
AcDbVertex
100
AcDb2dVertex
 10
90.96120060659999
 20
-149.5736436258011
 30
0.0
  0
SEQEND
  5
66
330
63
100
AcDbEntity
  8
Capa 1
370
    15
  0
ENDBLK
  5
62
330
5F
100
AcDbEntity
  8
0
100
AcDbBlockEnd
  0
BLOCK
  5
69
330
67
100
AcDbEntity
  8
0
100
AcDbBlockBegin
  2
block 7
 70
     0
 71
     0
 10
0.0
 20
0.0
 30
0.0
  3
block 7
  1

  0
POLYLINE
  5
6B
330
67
100
AcDbEntity
  8
Capa 1
 62
     7
420
 16777215
370
    15
100
AcDb2dPolyline
 66
     1
 10
0.0
 20
0.0
 30
0.0
  0
VERTEX
  5
6C
330
6B
100
AcDbEntity
  8
Capa 1
 62
     7
420
 16777215
370
    15
100
AcDbVertex
100
AcDb2dVertex
 10
90.62874889227338
 20
-146.8737222940107
 30
0.0
  0
VERTEX
  5
6D
330
6B
100
AcDbEntity
  8
Capa 1
 62
     7
420
 16777215
370
    15
100
AcDbVertex
100
AcDb2dVertex
 10
90.42945011845167
 20
-146.8737222940107
 30
0.0
  0
SEQEND
  5
6E
330
6B
100
AcDbEntity
  8
Capa 1
370
    15
  0
ENDBLK
  5
6A
330
67
100
AcDbEntity
  8
0
100
AcDbBlockEnd
  0
BLOCK
  5
71
330
6F
100
AcDbEntity
  8
0
100
AcDbBlockBegin
  2
block 8
 70
     0
 71
     0
 10
0.0
 20
0.0
 30
0.0
  3
block 8
  1

  0
POLYLINE
  5
73
330
6F
100
AcDbEntity
  8
Capa 1
 62
     7
420
 16777215
370
    15
100
AcDb2dPolyline
 66
     1
 10
0.0
 20
0.0
 30
0.0
  0
VERTEX
  5
74
330
73
100
AcDbEntity
  8
Capa 1
 62
     7
420
 16777215
370
    15
100
AcDbVertex
100
AcDb2dVertex
 10
95.82946503680652
 20
-146.8737222940107
 30
0.0
  0
VERTEX
  5
75
330
73
100
AcDbEntity
  8
Capa 1
 62
     7
420
 16777215
370
    15
100
AcDbVertex
100
AcDb2dVertex
 10
95.62861597001645
 20
-146.8737222940107
 30
0.0
  0
SEQEND
  5
76
330
73
100
AcDbEntity
  8
Capa 1
370
    15
  0
ENDBLK
  5
72
330
6F
100
AcDbEntity
  8
0
100
AcDbBlockEnd
  0
BLOCK
  5
79
330
77
100
AcDbEntity
  8
0
100
AcDbBlockBegin
  2
block 9
 70
     0
 71
     0
 10
0.0
 20
0.0
 30
0.0
  3
block 9
  1

  0
POLYLINE
  5
7B
330
77
100
AcDbEntity
  8
Capa 1
 62
     7
420
 16777215
370
    15
100
AcDb2dPolyline
 66
     1
 10
0.0
 20
0.0
 30
0.0
  0
VERTEX
  5
7C
330
7B
100
AcDbEntity
  8
Capa 1
 62
     7
420
 16777215
370
    15
100
AcDbVertex
100
AcDb2dVertex
 10
95.82946503680652
 20
-149.4737358567288
 30
0.0
  0
VERTEX
  5
7D
330
7B
100
AcDbEntity
  8
Capa 1
 62
     7
420
 16777215
370
    15
100
AcDbVertex
100
AcDb2dVertex
 10
96.72932397755379
 20
-149.4737358567288
 30
0.0
  0
SEQEND
  5
7E
330
7B
100
AcDbEntity
  8
Capa 1
370
    15
  0
ENDBLK
  5
7A
330
77
100
AcDbEntity
  8
0
100
AcDbBlockEnd
  0
BLOCK
  5
81
330
7F
100
AcDbEntity
  8
0
100
AcDbBlockBegin
  2
block 10
 70
     0
 71
     0
 10
0.0
 20
0.0
 30
0.0
  3
block 10
  1

  0
POLYLINE
  5
83
330
7F
100
AcDbEntity
  8
Capa 1
 62
     7
420
 16777215
370
    15
100
AcDb2dPolyline
 66
     1
 10
0.0
 20
0.0
 30
0.0
  0
VERTEX
  5
84
330
83
100
AcDbEntity
  8
Capa 1
 62
     7
420
 16777215
370
    15
100
AcDbVertex
100
AcDb2dVertex
 10
96.72932397755379
 20
-146.9739745726315
 30
0.0
  0
VERTEX
  5
85
330
83
100
AcDbEntity
  8
Capa 1
 62
     7
420
 16777215
370
    15
100
AcDbVertex
100
AcDb2dVertex
 10
95.82946503680652
 20
-146.9739745726315
 30
0.0
  0
SEQEND
  5
86
330
83
100
AcDbEntity
  8
Capa 1
370
    15
  0
ENDBLK
  5
82
330
7F
100
AcDbEntity
  8
0
100
AcDbBlockEnd
  0
BLOCK
  5
89
330
87
100
AcDbEntity
  8
0
100
AcDbBlockBegin
  2
block 11
 70
     0
 71
     0
 10
0.0
 20
0.0
 30
0.0
  3
block 11
  1

  0
POLYLINE
  5
8B
330
87
100
AcDbEntity
  8
Capa 1
 62
     7
420
 16777215
370
    15
100
AcDb2dPolyline
 66
     1
 10
0.0
 20
0.0
 30
0.0
  0
VERTEX
  5
8C
330
8B
100
AcDbEntity
  8
Capa 1
 62
     7
420
 16777215
370
    15
100
AcDbVertex
100
AcDb2dVertex
 10
90.42945011845167
 20
-146.9739745726315
 30
0.0
  0
VERTEX
  5
8D
330
8B
100
AcDbEntity
  8
Capa 1
 62
     7
420
 16777215
370
    15
100
AcDbVertex
100
AcDb2dVertex
 10
89.52941892293015
 20
-146.9739745726315
 30
0.0
  0
SEQEND
  5
8E
330
8B
100
AcDbEntity
  8
Capa 1
370
    15
  0
ENDBLK
  5
8A
330
87
100
AcDbEntity
  8
0
100
AcDbBlockEnd
  0
BLOCK
  5
91
330
8F
100
AcDbEntity
  8
0
100
AcDbBlockBegin
  2
block 12
 70
     0
 71
     0
 10
0.0
 20
0.0
 30
0.0
  3
block 12
  1

  0
POLYLINE
  5
93
330
8F
100
AcDbEntity
  8
Capa 1
 62
     7
420
 16777215
370
    15
100
AcDb2dPolyline
 66
     1
 10
0.0
 20
0.0
 30
0.0
  0
VERTEX
  5
94
330
93
100
AcDbEntity
  8
Capa 1
 62
     7
420
 16777215
370
    15
100
AcDbVertex
100
AcDb2dVertex
 10
89.52941892293015
 20
-149.4737358567288
 30
0.0
  0
VERTEX
  5
95
330
93
100
AcDbEntity
  8
Capa 1
 62
     7
420
 16777215
370
    15
100
AcDbVertex
100
AcDb2dVertex
 10
90.42945011845167
 20
-149.4737358567288
 30
0.0
  0
SEQEND
  5
96
330
93
100
AcDbEntity
  8
Capa 1
370
    15
  0
ENDBLK
  5
92
330
8F
100
AcDbEntity
  8
0
100
AcDbBlockEnd
  0
BLOCK
  5
99
330
97
100
AcDbEntity
  8
0
100
AcDbBlockBegin
  2
block 13
 70
     0
 71
     0
 10
0.0
 20
0.0
 30
0.0
  3
block 13
  1

  0
POLYLINE
  5
9B
330
97
100
AcDbEntity
  8
Capa 1
 62
     7
420
 16777215
370
    15
100
AcDb2dPolyline
 66
     1
 10
0.0
 20
0.0
 30
0.0
  0
VERTEX
  5
9C
330
9B
100
AcDbEntity
  8
Capa 1
 62
     7
420
 16777215
370
    15
100
AcDbVertex
100
AcDb2dVertex
 10
94.37942434706487
 20
-145.5235893733413
 30
0.0
  0
VERTEX
  5
9D
330
9B
100
AcDbEntity
  8
Capa 1
 62
     7
420
 16777215
370
    15
100
AcDbVertex
100
AcDb2dVertex
 10
94.37942434706487
 20
-144.6237304325941
 30
0.0
  0
SEQEND
  5
9E
330
9B
100
AcDbEntity
  8
Capa 1
370
    15
  0
ENDBLK
  5
9A
330
97
100
AcDbEntity
  8
0
100
AcDbBlockEnd
  0
BLOCK
  5
A1
330
9F
100
AcDbEntity
  8
0
100
AcDbBlockBegin
  2
block 14
 70
     0
 71
     0
 10
0.0
 20
0.0
 30
0.0
  3
block 14
  1

  0
POLYLINE
  5
A3
330
9F
100
AcDbEntity
  8
Capa 1
 62
     7
420
 16777215
370
    15
100
AcDb2dPolyline
 66
     1
 10
0.0
 20
0.0
 30
0.0
  0
VERTEX
  5
A4
330
A3
100
AcDbEntity
  8
Capa 1
 62
     7
420
 16777215
370
    15
100
AcDbVertex
100
AcDb2dVertex
 10
91.87931855341907
 20
-144.6237304325941
 30
0.0
  0
VERTEX
  5
A5
330
A3
100
AcDbEntity
  8
Capa 1
 62
     7
420
 16777215
370
    15
100
AcDbVertex
100
AcDb2dVertex
 10
91.87931855341907
 20
-145.5235893733413
 30
0.0
  0
SEQEND
  5
A6
330
A3
100
AcDbEntity
  8
Capa 1
370
    15
  0
ENDBLK
  5
A2
330
9F
100
AcDbEntity
  8
0
100
AcDbBlockEnd
  0
BLOCK
  5
A9
330
A7
100
AcDbEntity
  8
0
100
AcDbBlockBegin
  2
block 15
 70
     0
 71
     0
 10
0.0
 20
0.0
 30
0.0
  3
block 15
  1

  0
POLYLINE
  5
AB
330
A7
100
AcDbEntity
  8
Capa 1
 62
     7
420
 16777215
370
    15
100
AcDb2dPolyline
 66
     1
 10
0.0
 20
0.0
 30
0.0
  0
VERTEX
  5
AC
330
AB
100
AcDbEntity
  8
Capa 1
 62
     7
420
 16777215
370
    15
100
AcDbVertex
100
AcDb2dVertex
 10
95.62861597001645
 20
-146.8737222940107
 30
0.0
  0
VERTEX
  5
AD
330
AB
100
AcDbEntity
  8
Capa 1
 62
     7
420
 16777215
370
    15
100
AcDbVertex
100
AcDb2dVertex
 10
95.82946503680652
 20
-146.8737222940107
 30
0.0
  0
SEQEND
  5
AE
330
AB
100
AcDbEntity
  8
Capa 1
370
    15
  0
ENDBLK
  5
AA
330
A7
100
AcDbEntity
  8
0
100
AcDbBlockEnd
  0
BLOCK
  5
B1
330
AF
100
AcDbEntity
  8
0
100
AcDbBlockBegin
  2
block 16
 70
     0
 71
     0
 10
0.0
 20
0.0
 30
0.0
  3
block 16
  1

  0
POLYLINE
  5
B3
330
AF
100
AcDbEntity
  8
Capa 1
 62
     7
420
 16777215
370
    15
100
AcDb2dPolyline
 66
     1
 10
0.0
 20
0.0
 30
0.0
  0
VERTEX
  5
B4
330
B3
100
AcDbEntity
  8
Capa 1
 62
     7
420
 16777215
370
    15
100
AcDbVertex
100
AcDb2dVertex
 10
95.82946503680652
 20
-149.5736436258011
 30
0.0
  0
VERTEX
  5
B5
330
B3
100
AcDbEntity
  8
Capa 1
 62
     7
420
 16777215
370
    15
100
AcDbVertex
100
AcDb2dVertex
 10
95.298231312981
 20
-149.5736436258011
 30
0.0
  0
SEQEND
  5
B6
330
B3
100
AcDbEntity
  8
Capa 1
370
    15
  0
ENDBLK
  5
B2
330
AF
100
AcDbEntity
  8
0
100
AcDbBlockEnd
  0
BLOCK
  5
B9
330
B7
100
AcDbEntity
  8
0
100
AcDbBlockBegin
  2
block 17
 70
     0
 71
     0
 10
0.0
 20
0.0
 30
0.0
  3
block 17
  1

  0
POLYLINE
  5
BB
330
B7
100
AcDbEntity
  8
Capa 1
 62
     7
420
 16777215
370
    15
100
AcDb2dPolyline
 66
     1
 10
0.0
 20
0.0
 30
0.0
  0
VERTEX
  5
BC
330
BB
100
AcDbEntity
  8
Capa 1
 62
     7
420
 16777215
370
    15
100
AcDbVertex
100
AcDb2dVertex
 10
90.96120060659999
 20
-149.5736436258011
 30
0.0
  0
VERTEX
  5
BD
330
BB
100
AcDbEntity
  8
Capa 1
 62
     7
420
 16777215
370
    15
100
AcDbVertex
100
AcDb2dVertex
 10
90.42945011845167
 20
-149.5736436258011
 30
0.0
  0
SEQEND
  5
BE
330
BB
100
AcDbEntity
  8
Capa 1
370
    15
  0
ENDBLK
  5
BA
330
B7
100
AcDbEntity
  8
0
100
AcDbBlockEnd
  0
BLOCK
  5
C1
330
BF
100
AcDbEntity
  8
0
100
AcDbBlockBegin
  2
block 18
 70
     0
 71
     0
 10
0.0
 20
0.0
 30
0.0
  3
block 18
  1

  0
POLYLINE
  5
C3
330
BF
100
AcDbEntity
  8
Capa 1
 62
     7
420
 16777215
370
    15
100
AcDb2dPolyline
 66
     1
 10
0.0
 20
0.0
 30
0.0
  0
VERTEX
  5
C4
330
C3
100
AcDbEntity
  8
Capa 1
 62
     7
420
 16777215
370
    15
100
AcDbVertex
100
AcDb2dVertex
 10
90.42945011845167
 20
-146.8737222940107
 30
0.0
  0
VERTEX
  5
C5
330
C3
100
AcDbEntity
  8
Capa 1
 62
     7
420
 16777215
370
    15
100
AcDbVertex
100
AcDb2dVertex
 10
90.62874889227338
 20
-146.8737222940107
 30
0.0
  0
SEQEND
  5
C6
330
C3
100
AcDbEntity
  8
Capa 1
370
    15
  0
ENDBLK
  5
C2
330
BF
100
AcDbEntity
  8
0
100
AcDbBlockEnd
  0
BLOCK
  5
C9
330
C7
100
AcDbEntity
  8
0
100
AcDbBlockBegin
  2
block 19
 70
     0
 71
     0
 10
0.0
 20
0.0
 30
0.0
  3
block 19
  1

  0
POLYLINE
  5
CB
330
C7
100
AcDbEntity
  8
Capa 1
 62
     7
420
 16777215
370
    15
100
AcDb2dPolyline
 66
     1
 10
0.0
 20
0.0
 30
0.0
  0
VERTEX
  5
CC
330
CB
100
AcDbEntity
  8
Capa 1
 62
     7
420
 16777215
370
    15
100
AcDbVertex
100
AcDb2dVertex
 10
90.42945011845167
 20
-149.4737358567288
 30
0.0
  0
VERTEX
  5
CD
330
CB
100
AcDbEntity
  8
Capa 1
 62
     7
420
 16777215
370
    15
100
AcDbVertex
100
AcDb2dVertex
 10
89.42933889908365
 20
-149.4737358567288
 30
0.0
  0
SEQEND
  5
CE
330
CB
100
AcDbEntity
  8
Capa 1
370
    15
  0
ENDBLK
  5
CA
330
C7
100
AcDbEntity
  8
0
100
AcDbBlockEnd
  0
BLOCK
  5
D1
330
CF
100
AcDbEntity
  8
0
100
AcDbBlockBegin
  2
block 20
 70
     0
 71
     0
 10
0.0
 20
0.0
 30
0.0
  3
block 20
  1

  0
POLYLINE
  5
D3
330
CF
100
AcDbEntity
  8
Capa 1
 62
     7
420
 16777215
370
    15
100
AcDb2dPolyline
 66
     1
 10
0.0
 20
0.0
 30
0.0
  0
VERTEX
  5
D4
330
D3
100
AcDbEntity
  8
Capa 1
 62
     7
420
 16777215
370
    15
100
AcDbVertex
100
AcDb2dVertex
 10
96.82957625617456
 20
-149.4737358567288
 30
0.0
  0
VERTEX
  5
D5
330
D3
100
AcDbEntity
  8
Capa 1
 62
     7
420
 16777215
370
    15
100
AcDbVertex
100
AcDb2dVertex
 10
95.82946503680652
 20
-149.4737358567288
 30
0.0
  0
SEQEND
  5
D6
330
D3
100
AcDbEntity
  8
Capa 1
370
    15
  0
ENDBLK
  5
D2
330
CF
100
AcDbEntity
  8
0
100
AcDbBlockEnd
  0
BLOCK
  5
D9
330
D7
100
AcDbEntity
  8
0
100
AcDbBlockBegin
  2
block 21
 70
     0
 71
     0
 10
0.0
 20
0.0
 30
0.0
  3
block 21
  1

  0
POLYLINE
  5
DB
330
D7
100
AcDbEntity
  8
Capa 1
 62
     7
420
 16777215
370
    15
100
AcDb2dPolyline
 66
     1
 10
0.0
 20
0.0
 30
0.0
  0
VERTEX
  5
DC
330
DB
100
AcDbEntity
  8
Capa 1
 62
     7
420
 16777215
370
    15
100
AcDbVertex
100
AcDb2dVertex
 10
89.42933889908365
 20
-146.9739745726315
 30
0.0
  0
VERTEX
  5
DD
330
DB
100
AcDbEntity
  8
Capa 1
 62
     7
420
 16777215
370
    15
100
AcDbVertex
100
AcDb2dVertex
 10
90.42945011845167
 20
-146.9739745726315
 30
0.0
  0
SEQEND
  5
DE
330
DB
100
AcDbEntity
  8
Capa 1
370
    15
  0
ENDBLK
  5
DA
330
D7
100
AcDbEntity
  8
0
100
AcDbBlockEnd
  0
BLOCK
  5
E1
330
DF
100
AcDbEntity
  8
0
100
AcDbBlockBegin
  2
block 22
 70
     0
 71
     0
 10
0.0
 20
0.0
 30
0.0
  3
block 22
  1

  0
POLYLINE
  5
E3
330
DF
100
AcDbEntity
  8
Capa 1
 62
     7
420
 16777215
370
    15
100
AcDb2dPolyline
 66
     1
 10
0.0
 20
0.0
 30
0.0
  0
VERTEX
  5
E4
330
E3
100
AcDbEntity
  8
Capa 1
 62
     7
420
 16777215
370
    15
100
AcDbVertex
100
AcDb2dVertex
 10
95.82946503680652
 20
-146.9739745726315
 30
0.0
  0
VERTEX
  5
E5
330
E3
100
AcDbEntity
  8
Capa 1
 62
     7
420
 16777215
370
    15
100
AcDbVertex
100
AcDb2dVertex
 10
96.82957625617456
 20
-146.9739745726315
 30
0.0
  0
SEQEND
  5
E6
330
E3
100
AcDbEntity
  8
Capa 1
370
    15
  0
ENDBLK
  5
E2
330
DF
100
AcDbEntity
  8
0
100
AcDbBlockEnd
  0
BLOCK
  5
E9
330
E7
100
AcDbEntity
  8
0
100
AcDbBlockBegin
  2
block 23
 70
     0
 71
     0
 10
0.0
 20
0.0
 30
0.0
  3
block 23
  1

  0
POLYLINE
  5
EB
330
E7
100
AcDbEntity
  8
Capa 1
 62
     7
420
 16777215
370
    15
100
AcDb2dPolyline
 66
     1
 10
0.0
 20
0.0
 30
0.0
  0
VERTEX
  5
EC
330
EB
100
AcDbEntity
  8
Capa 1
 62
     7
420
 16777215
370
    15
100
AcDbVertex
100
AcDb2dVertex
 10
91.87931855341907
 20
-145.5235893733413
 30
0.0
  0
VERTEX
  5
ED
330
EB
100
AcDbEntity
  8
Capa 1
 62
     7
420
 16777215
370
    15
100
AcDbVertex
100
AcDb2dVertex
 10
91.87931855341907
 20
-144.5238226635218
 30
0.0
  0
SEQEND
  5
EE
330
EB
100
AcDbEntity
  8
Capa 1
370
    15
  0
ENDBLK
  5
EA
330
E7
100
AcDbEntity
  8
0
100
AcDbBlockEnd
  0
BLOCK
  5
F1
330
EF
100
AcDbEntity
  8
0
100
AcDbBlockBegin
  2
block 24
 70
     0
 71
     0
 10
0.0
 20
0.0
 30
0.0
  3
block 24
  1

  0
POLYLINE
  5
F3
330
EF
100
AcDbEntity
  8
Capa 1
 62
     7
420
 16777215
370
    15
100
AcDb2dPolyline
 66
     1
 10
0.0
 20
0.0
 30
0.0
  0
VERTEX
  5
F4
330
F3
100
AcDbEntity
  8
Capa 1
 62
     7
420
 16777215
370
    15
100
AcDbVertex
100
AcDb2dVertex
 10
91.77941078434682
 20
-145.6238416519621
 30
0.0
  0
VERTEX
  5
F5
330
F3
100
AcDbEntity
  8
Capa 1
 62
     7
420
 16777215
370
    15
100
AcDbVertex
100
AcDb2dVertex
 10
91.77941078434682
 20
-145.5235893733413
 30
0.0
  0
SEQEND
  5
F6
330
F3
100
AcDbEntity
  8
Capa 1
370
    15
  0
ENDBLK
  5
F2
330
EF
100
AcDbEntity
  8
0
100
AcDbBlockEnd
  0
BLOCK
  5
F9
330
F7
100
AcDbEntity
  8
0
100
AcDbBlockBegin
  2
block 25
 70
     0
 71
     0
 10
0.0
 20
0.0
 30
0.0
  3
block 25
  1

  0
POLYLINE
  5
FB
330
F7
100
AcDbEntity
  8
Capa 1
 62
     7
420
 16777215
370
    15
100
AcDb2dPolyline
 66
     1
 10
0.0
 20
0.0
 30
0.0
  0
VERTEX
  5
FC
330
FB
100
AcDbEntity
  8
Capa 1
 62
     7
420
 16777215
370
    15
100
AcDbVertex
100
AcDb2dVertex
 10
94.37942434706487
 20
-144.5238226635218
 30
0.0
  0
VERTEX
  5
FD
330
FB
100
AcDbEntity
  8
Capa 1
 62
     7
420
 16777215
370
    15
100
AcDbVertex
100
AcDb2dVertex
 10
94.37942434706487
 20
-145.5235893733413
 30
0.0
  0
SEQEND
  5
FE
330
FB
100
AcDbEntity
  8
Capa 1
370
    15
  0
ENDBLK
  5
FA
330
F7
100
AcDbEntity
  8
0
100
AcDbBlockEnd
  0
BLOCK
  5
101
330
FF
100
AcDbEntity
  8
0
100
AcDbBlockBegin
  2
block 26
 70
     0
 71
     0
 10
0.0
 20
0.0
 30
0.0
  3
block 26
  1

  0
POLYLINE
  5
103
330
FF
100
AcDbEntity
  8
Capa 1
 62
     7
420
 16777215
370
    15
100
AcDb2dPolyline
 66
     1
 10
0.0
 20
0.0
 30
0.0
  0
VERTEX
  5
104
330
103
100
AcDbEntity
  8
Capa 1
 62
     7
420
 16777215
370
    15
100
AcDbVertex
100
AcDb2dVertex
 10
94.47933211613712
 20
-145.5235893733413
 30
0.0
  0
VERTEX
  5
105
330
103
100
AcDbEntity
  8
Capa 1
 62
     7
420
 16777215
370
    15
100
AcDbVertex
100
AcDb2dVertex
 10
94.47933211613712
 20
-145.6238416519621
 30
0.0
  0
SEQEND
  5
106
330
103
100
AcDbEntity
  8
Capa 1
370
    15
  0
ENDBLK
  5
102
330
FF
100
AcDbEntity
  8
0
100
AcDbBlockEnd
  0
BLOCK
  5
109
330
107
100
AcDbEntity
  8
0
100
AcDbBlockBegin
  2
block 27
 70
     0
 71
     0
 10
0.0
 20
0.0
 30
0.0
  3
block 27
  1

  0
POLYLINE
  5
10B
330
107
100
AcDbEntity
  8
Capa 1
 62
     7
420
 16777215
370
    15
100
AcDb2dPolyline
 66
     1
 10
0.0
 20
0.0
 30
0.0
  0
VERTEX
  5
10C
330
10B
100
AcDbEntity
  8
Capa 1
 62
     7
420
 16777215
370
    15
100
AcDbVertex
100
AcDb2dVertex
 10
96.82957625617456
 20
-146.9739745726315
 30
0.0
  0
VERTEX
  5
10D
330
10B
100
AcDbEntity
  8
Capa 1
 62
     7
420
 16777215
370
    15
100
AcDbVertex
100
AcDb2dVertex
 10
96.82957625617456
 20
-147.0738823417038
 30
0.0
  0
SEQEND
  5
10E
330
10B
100
AcDbEntity
  8
Capa 1
370
    15
  0
ENDBLK
  5
10A
330
107
100
AcDbEntity
  8
0
100
AcDbBlockEnd
  0
BLOCK
  5
111
330
10F
100
AcDbEntity
  8
0
100
AcDbBlockBegin
  2
block 28
 70
     0
 71
     0
 10
0.0
 20
0.0
 30
0.0
  3
block 28
  1

  0
POLYLINE
  5
113
330
10F
100
AcDbEntity
  8
Capa 1
 62
     7
420
 16777215
370
    15
100
AcDb2dPolyline
 66
     1
 10
0.0
 20
0.0
 30
0.0
  0
VERTEX
  5
114
330
113
100
AcDbEntity
  8
Capa 1
 62
     7
420
 16777215
370
    15
100
AcDbVertex
100
AcDb2dVertex
 10
96.82957625617456
 20
-149.3738280876566
 30
0.0
  0
VERTEX
  5
115
330
113
100
AcDbEntity
  8
Capa 1
 62
     7
420
 16777215
370
    15
100
AcDbVertex
100
AcDb2dVertex
 10
96.82957625617456
 20
-149.4737358567288
 30
0.0
  0
SEQEND
  5
116
330
113
100
AcDbEntity
  8
Capa 1
370
    15
  0
ENDBLK
  5
112
330
10F
100
AcDbEntity
  8
0
100
AcDbBlockEnd
  0
BLOCK
  5
119
330
117
100
AcDbEntity
  8
0
100
AcDbBlockBegin
  2
block 29
 70
     0
 71
     0
 10
0.0
 20
0.0
 30
0.0
  3
block 29
  1

  0
POLYLINE
  5
11B
330
117
100
AcDbEntity
  8
Capa 1
 62
     7
420
 16777215
370
    15
100
AcDb2dPolyline
 66
     1
 10
0.0
 20
0.0
 30
0.0
  0
VERTEX
  5
11C
330
11B
100
AcDbEntity
  8
Capa 1
 62
     7
420
 16777215
370
    15
100
AcDbVertex
100
AcDb2dVertex
 10
89.42933889908365
 20
-149.4737358567288
 30
0.0
  0
VERTEX
  5
11D
330
11B
100
AcDbEntity
  8
Capa 1
 62
     7
420
 16777215
370
    15
100
AcDbVertex
100
AcDb2dVertex
 10
89.42933889908365
 20
-149.3738280876566
 30
0.0
  0
SEQEND
  5
11E
330
11B
100
AcDbEntity
  8
Capa 1
370
    15
  0
ENDBLK
  5
11A
330
117
100
AcDbEntity
  8
0
100
AcDbBlockEnd
  0
BLOCK
  5
121
330
11F
100
AcDbEntity
  8
0
100
AcDbBlockBegin
  2
block 30
 70
     0
 71
     0
 10
0.0
 20
0.0
 30
0.0
  3
block 30
  1

  0
POLYLINE
  5
123
330
11F
100
AcDbEntity
  8
Capa 1
 62
     7
420
 16777215
370
    15
100
AcDb2dPolyline
 66
     1
 10
0.0
 20
0.0
 30
0.0
  0
VERTEX
  5
124
330
123
100
AcDbEntity
  8
Capa 1
 62
     7
420
 16777215
370
    15
100
AcDbVertex
100
AcDb2dVertex
 10
89.42933889908365
 20
-147.0738823417038
 30
0.0
  0
VERTEX
  5
125
330
123
100
AcDbEntity
  8
Capa 1
 62
     7
420
 16777215
370
    15
100
AcDbVertex
100
AcDb2dVertex
 10
89.42933889908365
 20
-146.9739745726315
 30
0.0
  0
SEQEND
  5
126
330
123
100
AcDbEntity
  8
Capa 1
370
    15
  0
ENDBLK
  5
122
330
11F
100
AcDbEntity
  8
0
100
AcDbBlockEnd
  0
BLOCK
  5
129
330
127
100
AcDbEntity
  8
0
100
AcDbBlockBegin
  2
block 31
 70
     0
 71
     0
 10
0.0
 20
0.0
 30
0.0
  3
block 31
  1

  0
POLYLINE
  5
12B
330
127
100
AcDbEntity
  8
Capa 1
 62
     7
420
 16777215
370
    15
100
AcDb2dPolyline
 66
     1
 10
0.0
 20
0.0
 30
0.0
  0
VERTEX
  5
12C
330
12B
100
AcDbEntity
  8
Capa 1
 62
     7
420
 16777215
370
    15
100
AcDbVertex
100
AcDb2dVertex
 10
91.87931855341907
 20
-144.5238226635218
 30
0.0
  0
VERTEX
  5
12D
330
12B
100
AcDbEntity
  8
Capa 1
 62
     7
420
 16777215
370
    15
100
AcDbVertex
100
AcDb2dVertex
 10
91.97957083203984
 20
-144.5238226635218
 30
0.0
  0
SEQEND
  5
12E
330
12B
100
AcDbEntity
  8
Capa 1
370
    15
  0
ENDBLK
  5
12A
330
127
100
AcDbEntity
  8
0
100
AcDbBlockEnd
  0
BLOCK
  5
131
330
12F
100
AcDbEntity
  8
0
100
AcDbBlockBegin
  2
block 32
 70
     0
 71
     0
 10
0.0
 20
0.0
 30
0.0
  3
block 32
  1

  0
POLYLINE
  5
133
330
12F
100
AcDbEntity
  8
Capa 1
 62
     7
420
 16777215
370
    15
100
AcDb2dPolyline
 66
     1
 10
0.0
 20
0.0
 30
0.0
  0
VERTEX
  5
134
330
133
100
AcDbEntity
  8
Capa 1
 62
     7
420
 16777215
370
    15
100
AcDbVertex
100
AcDb2dVertex
 10
94.27951657799262
 20
-144.5238226635218
 30
0.0
  0
VERTEX
  5
135
330
133
100
AcDbEntity
  8
Capa 1
 62
     7
420
 16777215
370
    15
100
AcDbVertex
100
AcDb2dVertex
 10
94.37942434706487
 20
-144.5238226635218
 30
0.0
  0
SEQEND
  5
136
330
133
100
AcDbEntity
  8
Capa 1
370
    15
  0
ENDBLK
  5
132
330
12F
100
AcDbEntity
  8
0
100
AcDbBlockEnd
  0
BLOCK
  5
139
330
137
100
AcDbEntity
  8
0
100
AcDbBlockBegin
  2
block 33
 70
     0
 71
     0
 10
0.0
 20
0.0
 30
0.0
  3
block 33
  1

  0
POLYLINE
  5
13B
330
137
100
AcDbEntity
  8
Capa 1
 62
     7
420
 16777215
370
    15
100
AcDb2dPolyline
 66
     1
 10
0.0
 20
0.0
 30
0.0
  0
VERTEX
  5
13C
330
13B
100
AcDbEntity
  8
Capa 1
 62
     7
420
 16777215
370
    15
100
AcDbVertex
100
AcDb2dVertex
 10
91.77941078434682
 20
-145.5235893733413
 30
0.0
  0
VERTEX
  5
13D
330
13B
100
AcDbEntity
  8
Capa 1
 62
     7
420
 16777215
370
    15
100
AcDbVertex
100
AcDb2dVertex
 10
94.47933211613712
 20
-145.5235893733413
 30
0.0
  0
SEQEND
  5
13E
330
13B
100
AcDbEntity
  8
Capa 1
370
    15
  0
ENDBLK
  5
13A
330
137
100
AcDbEntity
  8
0
100
AcDbBlockEnd
  0
BLOCK
  5
141
330
13F
100
AcDbEntity
  8
0
100
AcDbBlockBegin
  2
block 34
 70
     0
 71
     0
 10
0.0
 20
0.0
 30
0.0
  3
block 34
  1

  0
POLYLINE
  5
143
330
13F
100
AcDbEntity
  8
Capa 1
 62
     7
420
 16777215
370
    15
100
AcDb2dPolyline
 66
     1
 10
0.0
 20
0.0
 30
0.0
  0
VERTEX
  5
144
330
143
100
AcDbEntity
  8
Capa 1
 62
     7
420
 16777215
370
    15
100
AcDbVertex
100
AcDb2dVertex
 10
94.47106388697252
 20
-146.4138020467299
 30
0.0
  0
VERTEX
  5
145
330
143
100
AcDbEntity
  8
Capa 1
 62
     7
420
 16777215
370
    15
100
AcDbVertex
100
AcDb2dVertex
 10
94.47106388697252
 20
-145.6238416519621
 30
0.0
  0
SEQEND
  5
146
330
143
100
AcDbEntity
  8
Capa 1
370
    15
  0
ENDBLK
  5
142
330
13F
100
AcDbEntity
  8
0
100
AcDbBlockEnd
  0
BLOCK
  5
149
330
147
100
AcDbEntity
  8
0
100
AcDbBlockBegin
  2
block 35
 70
     0
 71
     0
 10
0.0
 20
0.0
 30
0.0
  3
block 35
  1

  0
POLYLINE
  5
14B
330
147
100
AcDbEntity
  8
Capa 1
 62
     7
420
 16777215
370
    15
100
AcDb2dPolyline
 66
     1
 10
0.0
 20
0.0
 30
0.0
  0
VERTEX
  5
14C
330
14B
100
AcDbEntity
  8
Capa 1
 62
     7
420
 16777215
370
    15
100
AcDbVertex
100
AcDb2dVertex
 10
91.78767901351142
 20
-145.6238416519621
 30
0.0
  0
VERTEX
  5
14D
330
14B
100
AcDbEntity
  8
Capa 1
 62
     7
420
 16777215
370
    15
100
AcDbVertex
100
AcDb2dVertex
 10
91.78767901351142
 20
-146.4138020467299
 30
0.0
  0
SEQEND
  5
14E
330
14B
100
AcDbEntity
  8
Capa 1
370
    15
  0
ENDBLK
  5
14A
330
147
100
AcDbEntity
  8
0
100
AcDbBlockEnd
  0
BLOCK
  5
151
330
14F
100
AcDbEntity
  8
0
100
AcDbBlockBegin
  2
block 36
 70
     0
 71
     0
 10
0.0
 20
0.0
 30
0.0
  3
block 36
  1

  0
POLYLINE
  5
153
330
14F
100
AcDbEntity
  8
Capa 1
 62
     7
420
 16777215
370
    15
100
AcDb2dPolyline
 66
     1
 10
0.0
 20
0.0
 30
0.0
  0
VERTEX
  5
154
330
153
100
AcDbEntity
  8
Capa 1
 62
     7
420
 16777215
370
    15
100
AcDbVertex
100
AcDb2dVertex
 10
95.82946503680652
 20
-148.2238552146802
 30
0.0
  0
VERTEX
  5
155
330
153
100
AcDbEntity
  8
Capa 1
 62
     7
420
 16777215
370
    15
100
AcDbVertex
100
AcDb2dVertex
 10
95.82946503680652
 20
-149.5736436258011
 30
0.0
  0
SEQEND
  5
156
330
153
100
AcDbEntity
  8
Capa 1
370
    15
  0
ENDBLK
  5
152
330
14F
100
AcDbEntity
  8
0
100
AcDbBlockEnd
  0
BLOCK
  5
159
330
157
100
AcDbEntity
  8
0
100
AcDbBlockBegin
  2
block 37
 70
     0
 71
     0
 10
0.0
 20
0.0
 30
0.0
  3
block 37
  1

  0
POLYLINE
  5
15B
330
157
100
AcDbEntity
  8
Capa 1
 62
     7
420
 16777215
370
    15
100
AcDb2dPolyline
 66
     1
 10
0.0
 20
0.0
 30
0.0
  0
VERTEX
  5
15C
330
15B
100
AcDbEntity
  8
Capa 1
 62
     7
420
 16777215
370
    15
100
AcDbVertex
100
AcDb2dVertex
 10
95.82946503680652
 20
-146.8737222940107
 30
0.0
  0
VERTEX
  5
15D
330
15B
100
AcDbEntity
  8
Capa 1
 62
     7
420
 16777215
370
    15
100
AcDbVertex
100
AcDb2dVertex
 10
95.82946503680652
 20
-148.2238552146802
 30
0.0
  0
SEQEND
  5
15E
330
15B
100
AcDbEntity
  8
Capa 1
370
    15
  0
ENDBLK
  5
15A
330
157
100
AcDbEntity
  8
0
100
AcDbBlockEnd
  0
BLOCK
  5
161
330
15F
100
AcDbEntity
  8
0
100
AcDbBlockBegin
  2
block 38
 70
     0
 71
     0
 10
0.0
 20
0.0
 30
0.0
  3
block 38
  1

  0
POLYLINE
  5
163
330
15F
100
AcDbEntity
  8
Capa 1
 62
     7
420
 16777215
370
    15
100
AcDb2dPolyline
 66
     1
 10
0.0
 20
0.0
 30
0.0
  0
VERTEX
  5
164
330
163
100
AcDbEntity
  8
Capa 1
 62
     7
420
 16777215
370
    15
100
AcDbVertex
100
AcDb2dVertex
 10
90.42945011845167
 20
-146.8737222940107
 30
0.0
  0
VERTEX
  5
165
330
163
100
AcDbEntity
  8
Capa 1
 62
     7
420
 16777215
370
    15
100
AcDbVertex
100
AcDb2dVertex
 10
90.42945011845167
 20
-149.5736436258011
 30
0.0
  0
SEQEND
  5
166
330
163
100
AcDbEntity
  8
Capa 1
370
    15
  0
ENDBLK
  5
162
330
15F
100
AcDbEntity
  8
0
100
AcDbBlockEnd
  0
BLOCK
  5
169
330
167
100
AcDbEntity
  8
0
100
AcDbBlockBegin
  2
block 39
 70
     0
 71
     0
 10
0.0
 20
0.0
 30
0.0
  3
block 39
  1

  0
POLYLINE
  5
16B
330
167
100
AcDbEntity
  8
Capa 1
 62
     7
420
 16777215
370
    15
100
AcDb2dPolyline
 66
     1
 10
0.0
 20
0.0
 30
0.0
  0
VERTEX
  5
16C
330
16B
100
AcDbEntity
  8
Capa 1
 62
     7
420
 16777215
370
    15
100
AcDbVertex
100
AcDb2dVertex
 10
91.31949053706596
 20
-146.8823350327239
 30
0.0
  0
VERTEX
  5
16D
330
16B
100
AcDbEntity
  8
Capa 1
 62
     7
420
 16777215
370
    15
100
AcDbVertex
100
AcDb2dVertex
 10
90.62874889227338
 20
-146.8823350327239
 30
0.0
  0
SEQEND
  5
16E
330
16B
100
AcDbEntity
  8
Capa 1
370
    15
  0
ENDBLK
  5
16A
330
167
100
AcDbEntity
  8
0
100
AcDbBlockEnd
  0
BLOCK
  5
171
330
16F
100
AcDbEntity
  8
0
100
AcDbBlockBegin
  2
block 40
 70
     0
 71
     0
 10
0.0
 20
0.0
 30
0.0
  3
block 40
  1

  0
POLYLINE
  5
173
330
16F
100
AcDbEntity
  8
Capa 1
 62
     7
420
 16777215
370
    15
100
AcDb2dPolyline
 66
     1
 10
0.0
 20
0.0
 30
0.0
  0
VERTEX
  5
174
330
173
100
AcDbEntity
  8
Capa 1
 62
     7
420
 16777215
370
    15
100
AcDbVertex
100
AcDb2dVertex
 10
95.62861597001645
 20
-146.8823350327239
 30
0.0
  0
VERTEX
  5
175
330
173
100
AcDbEntity
  8
Capa 1
 62
     7
420
 16777215
370
    15
100
AcDbVertex
100
AcDb2dVertex
 10
94.93925236341796
 20
-146.8823350327239
 30
0.0
  0
SEQEND
  5
176
330
173
100
AcDbEntity
  8
Capa 1
370
    15
  0
ENDBLK
  5
172
330
16F
100
AcDbEntity
  8
0
100
AcDbBlockEnd
  0
BLOCK
  5
179
330
177
100
AcDbEntity
  8
0
100
AcDbBlockBegin
  2
block 41
 70
     0
 71
     0
 10
0.0
 20
0.0
 30
0.0
  3
block 41
  1

  0
POLYLINE
  5
17B
330
177
100
AcDbEntity
  8
Capa 1
 62
     7
420
 16777215
370
    15
100
AcDb2dPolyline
 66
     1
 10
0.0
 20
0.0
 30
0.0
  0
VERTEX
  5
17C
330
17B
100
AcDbEntity
  8
Capa 1
 62
     7
420
 16777215
370
    15
100
AcDbVertex
100
AcDb2dVertex
 10
91.97957083203984
 20
-144.5238226635218
 30
0.0
  0
VERTEX
  5
17D
330
17B
100
AcDbEntity
  8
Capa 1
 62
     7
420
 16777215
370
    15
100
AcDbVertex
100
AcDb2dVertex
 10
94.27951657799262
 20
-144.5238226635218
 30
0.0
  0
SEQEND
  5
17E
330
17B
100
AcDbEntity
  8
Capa 1
370
    15
  0
ENDBLK
  5
17A
330
177
100
AcDbEntity
  8
0
100
AcDbBlockEnd
  0
BLOCK
  5
181
330
17F
100
AcDbEntity
  8
0
100
AcDbBlockBegin
  2
block 42
 70
     0
 71
     0
 10
0.0
 20
0.0
 30
0.0
  3
block 42
  1

  0
POLYLINE
  5
183
330
17F
100
AcDbEntity
  8
Capa 1
 62
     7
420
 16777215
370
    15
100
AcDb2dPolyline
 66
     1
 10
0.0
 20
0.0
 30
0.0
  0
VERTEX
  5
184
330
183
100
AcDbEntity
  8
Capa 1
 62
     7
420
 16777215
370
    15
100
AcDbVertex
100
AcDb2dVertex
 10
89.42933889908365
 20
-149.3738280876566
 30
0.0
  0
VERTEX
  5
185
330
183
100
AcDbEntity
  8
Capa 1
 62
     7
420
 16777215
370
    15
100
AcDbVertex
100
AcDb2dVertex
 10
89.42933889908365
 20
-147.0738823417038
 30
0.0
  0
SEQEND
  5
186
330
183
100
AcDbEntity
  8
Capa 1
370
    15
  0
ENDBLK
  5
182
330
17F
100
AcDbEntity
  8
0
100
AcDbBlockEnd
  0
BLOCK
  5
189
330
187
100
AcDbEntity
  8
0
100
AcDbBlockBegin
  2
block 43
 70
     0
 71
     0
 10
0.0
 20
0.0
 30
0.0
  3
block 43
  1

  0
POLYLINE
  5
18B
330
187
100
AcDbEntity
  8
Capa 1
 62
     7
420
 16777215
370
    15
100
AcDb2dPolyline
 66
     1
 10
0.0
 20
0.0
 30
0.0
  0
VERTEX
  5
18C
330
18B
100
AcDbEntity
  8
Capa 1
 62
     7
420
 16777215
370
    15
100
AcDbVertex
100
AcDb2dVertex
 10
96.82957625617456
 20
-148.2238552146802
 30
0.0
  0
VERTEX
  5
18D
330
18B
100
AcDbEntity
  8
Capa 1
 62
     7
420
 16777215
370
    15
100
AcDbVertex
100
AcDb2dVertex
 10
96.82957625617456
 20
-149.3738280876566
 30
0.0
  0
SEQEND
  5
18E
330
18B
100
AcDbEntity
  8
Capa 1
370
    15
  0
ENDBLK
  5
18A
330
187
100
AcDbEntity
  8
0
100
AcDbBlockEnd
  0
BLOCK
  5
191
330
18F
100
AcDbEntity
  8
0
100
AcDbBlockBegin
  2
block 44
 70
     0
 71
     0
 10
0.0
 20
0.0
 30
0.0
  3
block 44
  1

  0
POLYLINE
  5
193
330
18F
100
AcDbEntity
  8
Capa 1
 62
     7
420
 16777215
370
    15
100
AcDb2dPolyline
 66
     1
 10
0.0
 20
0.0
 30
0.0
  0
VERTEX
  5
194
330
193
100
AcDbEntity
  8
Capa 1
 62
     7
420
 16777215
370
    15
100
AcDbVertex
100
AcDb2dVertex
 10
96.82957625617456
 20
-147.0738823417038
 30
0.0
  0
VERTEX
  5
195
330
193
100
AcDbEntity
  8
Capa 1
 62
     7
420
 16777215
370
    15
100
AcDbVertex
100
AcDb2dVertex
 10
96.82957625617456
 20
-148.2238552146802
 30
0.0
  0
SEQEND
  5
196
330
193
100
AcDbEntity
  8
Capa 1
370
    15
  0
ENDBLK
  5
192
330
18F
100
AcDbEntity
  8
0
100
AcDbBlockEnd
  0
BLOCK
  5
199
330
197
100
AcDbEntity
  8
0
100
AcDbBlockBegin
  2
block 45
 70
     0
 71
     0
 10
0.0
 20
0.0
 30
0.0
  3
block 45
  1

  0
POLYLINE
  5
19B
330
197
100
AcDbEntity
  8
Capa 1
 62
     7
420
 16777215
370
    15
100
AcDb2dPolyline
 66
     1
 10
0.0
 20
0.0
 30
0.0
  0
VERTEX
  5
19C
330
19B
100
AcDbEntity
  8
Capa 1
 62
     7
420
 16777215
370
    15
100
AcDbVertex
100
AcDb2dVertex
 10
94.47106388697252
 20
-145.6238416519621
 30
0.0
  0
VERTEX
  5
19D
330
19B
100
AcDbEntity
  8
Capa 1
 62
     7
420
 16777215
370
    15
100
AcDbVertex
100
AcDb2dVertex
 10
95.12873261510671
 20
-145.6238416519621
 30
0.0
  0
SEQEND
  5
19E
330
19B
100
AcDbEntity
  8
Capa 1
370
    15
  0
ENDBLK
  5
19A
330
197
100
AcDbEntity
  8
0
100
AcDbBlockEnd
  0
BLOCK
  5
1A1
330
19F
100
AcDbEntity
  8
0
100
AcDbBlockBegin
  2
block 46
 70
     0
 71
     0
 10
0.0
 20
0.0
 30
0.0
  3
block 46
  1

  0
SPLINE
  5
1A3
330
19F
100
AcDbEntity
  8
Capa 1
 62
     7
420
 16777215
370
    15
100
AcDbSpline
210
0.0
220
0.0
230
1.0
 70
     8
 71
     3
 72
     8
 73
     4
 74
     0
 42
0.0000000001
 43
0.0000000001
 40
0.0
 40
0.0
 40
0.0
 40
0.0
 40
1.0
 40
1.0
 40
1.0
 40
1.0
 10
95.62861597001645
 20
-146.1237250068719
 30
0.0
 10
95.62861597001645
 20
-145.8474283489548
 30
0.0
 10
95.40468476347522
 20
-145.6238416519621
 30
0.0
 10
95.12873261510671
 20
-145.6238416519621
 30
0.0
  0
ENDBLK
  5
1A2
330
19F
100
AcDbEntity
  8
0
100
AcDbBlockEnd
  0
BLOCK
  5
1A6
330
1A4
100
AcDbEntity
  8
0
100
AcDbBlockBegin
  2
block 47
 70
     0
 71
     0
 10
0.0
 20
0.0
 30
0.0
  3
block 47
  1

  0
POLYLINE
  5
1A8
330
1A4
100
AcDbEntity
  8
Capa 1
 62
     7
420
 16777215
370
    15
100
AcDb2dPolyline
 66
     1
 10
0.0
 20
0.0
 30
0.0
  0
VERTEX
  5
1A9
330
1A8
100
AcDbEntity
  8
Capa 1
 62
     7
420
 16777215
370
    15
100
AcDbVertex
100
AcDb2dVertex
 10
95.62861597001645
 20
-146.1237250068719
 30
0.0
  0
VERTEX
  5
1AA
330
1A8
100
AcDbEntity
  8
Capa 1
 62
     7
420
 16777215
370
    15
100
AcDbVertex
100
AcDb2dVertex
 10
95.62861597001645
 20
-146.8823350327239
 30
0.0
  0
SEQEND
  5
1AB
330
1A8
100
AcDbEntity
  8
Capa 1
370
    15
  0
ENDBLK
  5
1A7
330
1A4
100
AcDbEntity
  8
0
100
AcDbBlockEnd
  0
BLOCK
  5
1AE
330
1AC
100
AcDbEntity
  8
0
100
AcDbBlockBegin
  2
block 48
 70
     0
 71
     0
 10
0.0
 20
0.0
 30
0.0
  3
block 48
  1

  0
POLYLINE
  5
1B0
330
1AC
100
AcDbEntity
  8
Capa 1
 62
     7
420
 16777215
370
    15
100
AcDb2dPolyline
 66
     1
 10
0.0
 20
0.0
 30
0.0
  0
VERTEX
  5
1B1
330
1B0
100
AcDbEntity
  8
Capa 1
 62
     7
420
 16777215
370
    15
100
AcDbVertex
100
AcDb2dVertex
 10
90.62874889227338
 20
-146.1237250068719
 30
0.0
  0
VERTEX
  5
1B2
330
1B0
100
AcDbEntity
  8
Capa 1
 62
     7
420
 16777215
370
    15
100
AcDbVertex
100
AcDb2dVertex
 10
90.62874889227338
 20
-146.8823350327239
 30
0.0
  0
SEQEND
  5
1B3
330
1B0
100
AcDbEntity
  8
Capa 1
370
    15
  0
ENDBLK
  5
1AF
330
1AC
100
AcDbEntity
  8
0
100
AcDbBlockEnd
  0
BLOCK
  5
1B6
330
1B4
100
AcDbEntity
  8
0
100
AcDbBlockBegin
  2
block 49
 70
     0
 71
     0
 10
0.0
 20
0.0
 30
0.0
  3
block 49
  1

  0
SPLINE
  5
1B8
330
1B4
100
AcDbEntity
  8
Capa 1
 62
     7
420
 16777215
370
    15
100
AcDbSpline
210
0.0
220
0.0
230
1.0
 70
     8
 71
     3
 72
     8
 73
     4
 74
     0
 42
0.0000000001
 43
0.0000000001
 40
0.0
 40
0.0
 40
0.0
 40
0.0
 40
1.0
 40
1.0
 40
1.0
 40
1.0
 10
91.12863224718312
 20
-145.6238416519621
 30
0.0
 10
90.85268009881462
 20
-145.6238416519621
 30
0.0
 10
90.62874889227338
 20
-145.8474283489548
 30
0.0
 10
90.62874889227338
 20
-146.1237250068719
 30
0.0
  0
ENDBLK
  5
1B7
330
1B4
100
AcDbEntity
  8
0
100
AcDbBlockEnd
  0
BLOCK
  5
1BB
330
1B9
100
AcDbEntity
  8
0
100
AcDbBlockBegin
  2
block 50
 70
     0
 71
     0
 10
0.0
 20
0.0
 30
0.0
  3
block 50
  1

  0
POLYLINE
  5
1BD
330
1B9
100
AcDbEntity
  8
Capa 1
 62
     7
420
 16777215
370
    15
100
AcDb2dPolyline
 66
     1
 10
0.0
 20
0.0
 30
0.0
  0
VERTEX
  5
1BE
330
1BD
100
AcDbEntity
  8
Capa 1
 62
     7
420
 16777215
370
    15
100
AcDbVertex
100
AcDb2dVertex
 10
91.12863224718312
 20
-145.6238416519621
 30
0.0
  0
VERTEX
  5
1BF
330
1BD
100
AcDbEntity
  8
Capa 1
 62
     7
420
 16777215
370
    15
100
AcDbVertex
100
AcDb2dVertex
 10
91.78767901351142
 20
-145.6238416519621
 30
0.0
  0
SEQEND
  5
1C0
330
1BD
100
AcDbEntity
  8
Capa 1
370
    15
  0
ENDBLK
  5
1BC
330
1B9
100
AcDbEntity
  8
0
100
AcDbBlockEnd
  0
BLOCK
  5
1C3
330
1C1
100
AcDbEntity
  8
0
100
AcDbBlockBegin
  2
block 51
 70
     0
 71
     0
 10
0.0
 20
0.0
 30
0.0
  3
block 51
  1

  0
POLYLINE
  5
1C5
330
1C1
100
AcDbEntity
  8
Capa 1
 62
     7
420
 16777215
370
    15
100
AcDb2dPolyline
 66
     1
 10
0.0
 20
0.0
 30
0.0
  0
VERTEX
  5
1C6
330
1C5
100
AcDbEntity
  8
Capa 1
 62
     7
420
 16777215
370
    15
100
AcDbVertex
100
AcDb2dVertex
 10
118.7031765111228
 20
-148.5862792597284
 30
0.0
  0
VERTEX
  5
1C7
330
1C5
100
AcDbEntity
  8
Capa 1
 62
     7
420
 16777215
370
    15
100
AcDbVertex
100
AcDb2dVertex
 10
118.7031765111228
 20
-145.8863579279381
 30
0.0
  0
SEQEND
  5
1C8
330
1C5
100
AcDbEntity
  8
Capa 1
370
    15
  0
ENDBLK
  5
1C4
330
1C1
100
AcDbEntity
  8
0
100
AcDbBlockEnd
  0
BLOCK
  5
1CB
330
1C9
100
AcDbEntity
  8
0
100
AcDbBlockBegin
  2
block 52
 70
     0
 71
     0
 10
0.0
 20
0.0
 30
0.0
  3
block 52
  1

  0
POLYLINE
  5
1CD
330
1C9
100
AcDbEntity
  8
Capa 1
 62
     7
420
 16777215
370
    15
100
AcDb2dPolyline
 66
     1
 10
0.0
 20
0.0
 30
0.0
  0
VERTEX
  5
1CE
330
1CD
100
AcDbEntity
  8
Capa 1
 62
     7
420
 16777215
370
    15
100
AcDbVertex
100
AcDb2dVertex
 10
118.7031765111228
 20
-145.8863579279381
 30
0.0
  0
VERTEX
  5
1CF
330
1CD
100
AcDbEntity
  8
Capa 1
 62
     7
420
 16777215
370
    15
100
AcDbVertex
100
AcDb2dVertex
 10
118.8030842801951
 20
-145.8863579279381
 30
0.0
  0
SEQEND
  5
1D0
330
1CD
100
AcDbEntity
  8
Capa 1
370
    15
  0
ENDBLK
  5
1CC
330
1C9
100
AcDbEntity
  8
0
100
AcDbBlockEnd
  0
BLOCK
  5
1D3
330
1D1
100
AcDbEntity
  8
0
100
AcDbBlockBegin
  2
block 53
 70
     0
 71
     0
 10
0.0
 20
0.0
 30
0.0
  3
block 53
  1

  0
POLYLINE
  5
1D5
330
1D1
100
AcDbEntity
  8
Capa 1
 62
     7
420
 16777215
370
    15
100
AcDb2dPolyline
 66
     1
 10
0.0
 20
0.0
 30
0.0
  0
VERTEX
  5
1D6
330
1D5
100
AcDbEntity
  8
Capa 1
 62
     7
420
 16777215
370
    15
100
AcDbVertex
100
AcDb2dVertex
 10
118.8030842801951
 20
-145.8863579279381
 30
0.0
  0
VERTEX
  5
1D7
330
1D5
100
AcDbEntity
  8
Capa 1
 62
     7
420
 16777215
370
    15
100
AcDbVertex
100
AcDb2dVertex
 10
118.8030842801951
 20
-144.8862467085701
 30
0.0
  0
SEQEND
  5
1D8
330
1D5
100
AcDbEntity
  8
Capa 1
370
    15
  0
ENDBLK
  5
1D4
330
1D1
100
AcDbEntity
  8
0
100
AcDbBlockEnd
  0
BLOCK
  5
1DB
330
1D9
100
AcDbEntity
  8
0
100
AcDbBlockBegin
  2
block 54
 70
     0
 71
     0
 10
0.0
 20
0.0
 30
0.0
  3
block 54
  1

  0
POLYLINE
  5
1DD
330
1D9
100
AcDbEntity
  8
Capa 1
 62
     7
420
 16777215
370
    15
100
AcDb2dPolyline
 66
     1
 10
0.0
 20
0.0
 30
0.0
  0
VERTEX
  5
1DE
330
1DD
100
AcDbEntity
  8
Capa 1
 62
     7
420
 16777215
370
    15
100
AcDbVertex
100
AcDb2dVertex
 10
121.7031656596784
 20
-149.9939452750015
 30
0.0
  0
VERTEX
  5
1DF
330
1DD
100
AcDbEntity
  8
Capa 1
 62
     7
420
 16777215
370
    15
100
AcDbVertex
100
AcDb2dVertex
 10
121.7031656596784
 20
-150.6864094675367
 30
0.0
  0
SEQEND
  5
1E0
330
1DD
100
AcDbEntity
  8
Capa 1
370
    15
  0
ENDBLK
  5
1DC
330
1D9
100
AcDbEntity
  8
0
100
AcDbBlockEnd
  0
BLOCK
  5
1E3
330
1E1
100
AcDbEntity
  8
0
100
AcDbBlockBegin
  2
block 55
 70
     0
 71
     0
 10
0.0
 20
0.0
 30
0.0
  3
block 55
  1

  0
POLYLINE
  5
1E5
330
1E1
100
AcDbEntity
  8
Capa 1
 62
     7
420
 16777215
370
    15
100
AcDb2dPolyline
 66
     1
 10
0.0
 20
0.0
 30
0.0
  0
VERTEX
  5
1E6
330
1E5
100
AcDbEntity
  8
Capa 1
 62
     7
420
 16777215
370
    15
100
AcDbVertex
100
AcDb2dVertex
 10
120.0529649222437
 20
-149.9364121803978
 30
0.0
  0
VERTEX
  5
1E7
330
1E5
100
AcDbEntity
  8
Capa 1
 62
     7
420
 16777215
370
    15
100
AcDbVertex
100
AcDb2dVertex
 10
121.7031656596784
 20
-149.9939452750015
 30
0.0
  0
SEQEND
  5
1E8
330
1E5
100
AcDbEntity
  8
Capa 1
370
    15
  0
ENDBLK
  5
1E4
330
1E1
100
AcDbEntity
  8
0
100
AcDbBlockEnd
  0
BLOCK
  5
1EB
330
1E9
100
AcDbEntity
  8
0
100
AcDbBlockBegin
  2
block 56
 70
     0
 71
     0
 10
0.0
 20
0.0
 30
0.0
  3
block 56
  1

  0
SPLINE
  5
1ED
330
1E9
100
AcDbEntity
  8
Capa 1
 62
     7
420
 16777215
370
    15
100
AcDbSpline
210
0.0
220
0.0
230
1.0
 70
     8
 71
     3
 72
     8
 73
     4
 74
     0
 42
0.0000000001
 43
0.0000000001
 40
0.0
 40
0.0
 40
0.0
 40
0.0
 40
1.0
 40
1.0
 40
1.0
 40
1.0
 10
118.7031765111228
 20
-148.5862792597284
 30
0.0
 10
118.7031765111228
 20
-149.3317979227365
 30
0.0
 10
119.3074462592356
 20
-149.9364121803978
 30
0.0
 10
120.0529649222437
 20
-149.9364121803978
 30
0.0
  0
ENDBLK
  5
1EC
330
1E9
100
AcDbEntity
  8
0
100
AcDbBlockEnd
  0
BLOCK
  5
1F0
330
1EE
100
AcDbEntity
  8
0
100
AcDbBlockBegin
  2
block 57
 70
     0
 71
     0
 10
0.0
 20
0.0
 30
0.0
  3
block 57
  1

  0
SPLINE
  5
1F2
330
1EE
100
AcDbEntity
  8
Capa 1
 62
     7
420
 16777215
370
    15
100
AcDbSpline
210
0.0
220
0.0
230
1.0
 70
     8
 71
     3
 72
     8
 73
     4
 74
     0
 42
0.0000000001
 43
0.0000000001
 40
0.0
 40
0.0
 40
0.0
 40
0.0
 40
1.0
 40
1.0
 40
1.0
 40
1.0
 10
127.5029839090965
 20
-150.5865016984645
 30
0.0
 10
127.6066812832025
 20
-150.5920138512409
 30
0.0
 10
127.71003414776
 20
-150.5885687557556
 30
0.0
 10
127.813042502769
 20
-150.5761664120087
 30
0.0
  0
ENDBLK
  5
1F1
330
1EE
100
AcDbEntity
  8
0
100
AcDbBlockEnd
  0
BLOCK
  5
1F5
330
1F3
100
AcDbEntity
  8
0
100
AcDbBlockBegin
  2
block 58
 70
     0
 71
     0
 10
0.0
 20
0.0
 30
0.0
  3
block 58
  1

  0
SPLINE
  5
1F7
330
1F3
100
AcDbEntity
  8
Capa 1
 62
     7
420
 16777215
370
    15
100
AcDbSpline
210
0.0
220
0.0
230
1.0
 70
     8
 71
     3
 72
     8
 73
     4
 74
     0
 42
0.0000000001
 43
0.0000000001
 40
0.0
 40
0.0
 40
0.0
 40
0.0
 40
1.0
 40
1.0
 40
1.0
 40
1.0
 10
128.4024983402952
 20
-146.7724364867444
 30
0.0
 10
128.12344560599
 20
-146.6335991386888
 30
0.0
 10
127.8140760314145
 20
-146.5695203626632
 30
0.0
 10
127.5029839090965
 20
-146.5864013305409
 30
0.0
  0
ENDBLK
  5
1F6
330
1F3
100
AcDbEntity
  8
0
100
AcDbBlockEnd
  0
BLOCK
  5
1FA
330
1F8
100
AcDbEntity
  8
0
100
AcDbBlockBegin
  2
block 59
 70
     0
 71
     0
 10
0.0
 20
0.0
 30
0.0
  3
block 59
  1

  0
POLYLINE
  5
1FC
330
1F8
100
AcDbEntity
  8
Capa 1
 62
     7
420
 16777215
370
    15
100
AcDb2dPolyline
 66
     1
 10
0.0
 20
0.0
 30
0.0
  0
VERTEX
  5
1FD
330
1FC
100
AcDbEntity
  8
Capa 1
 62
     7
420
 16777215
370
    15
100
AcDbVertex
100
AcDb2dVertex
 10
122.0028889668951
 20
-146.4861490519201
 30
0.0
  0
VERTEX
  5
1FE
330
1FC
100
AcDbEntity
  8
Capa 1
 62
     7
420
 16777215
370
    15
100
AcDbVertex
100
AcDb2dVertex
 10
127.5029839090965
 20
-146.4861490519201
 30
0.0
  0
SEQEND
  5
1FF
330
1FC
100
AcDbEntity
  8
Capa 1
370
    15
  0
ENDBLK
  5
1FB
330
1F8
100
AcDbEntity
  8
0
100
AcDbBlockEnd
  0
BLOCK
  5
202
330
200
100
AcDbEntity
  8
0
100
AcDbBlockBegin
  2
block 60
 70
     0
 71
     0
 10
0.0
 20
0.0
 30
0.0
  3
block 60
  1

  0
POLYLINE
  5
204
330
200
100
AcDbEntity
  8
Capa 1
 62
     7
420
 16777215
370
    15
100
AcDb2dPolyline
 66
     1
 10
0.0
 20
0.0
 30
0.0
  0
VERTEX
  5
205
330
204
100
AcDbEntity
  8
Capa 1
 62
     7
420
 16777215
370
    15
100
AcDbVertex
100
AcDb2dVertex
 10
127.5029839090965
 20
-150.6864094675367
 30
0.0
  0
VERTEX
  5
206
330
204
100
AcDbEntity
  8
Capa 1
 62
     7
420
 16777215
370
    15
100
AcDbVertex
100
AcDb2dVertex
 10
122.0028889668951
 20
-150.6864094675367
 30
0.0
  0
SEQEND
  5
207
330
204
100
AcDbEntity
  8
Capa 1
370
    15
  0
ENDBLK
  5
203
330
200
100
AcDbEntity
  8
0
100
AcDbBlockEnd
  0
BLOCK
  5
20A
330
208
100
AcDbEntity
  8
0
100
AcDbBlockBegin
  2
block 61
 70
     0
 71
     0
 10
0.0
 20
0.0
 30
0.0
  3
block 61
  1

  0
POLYLINE
  5
20C
330
208
100
AcDbEntity
  8
Capa 1
 62
     7
420
 16777215
370
    15
100
AcDb2dPolyline
 66
     1
 10
0.0
 20
0.0
 30
0.0
  0
VERTEX
  5
20D
330
20C
100
AcDbEntity
  8
Capa 1
 62
     7
420
 16777215
370
    15
100
AcDbVertex
100
AcDb2dVertex
 10
127.5029839090965
 20
-150.6864094675367
 30
0.0
  0
VERTEX
  5
20E
330
20C
100
AcDbEntity
  8
Capa 1
 62
     7
420
 16777215
370
    15
100
AcDbVertex
100
AcDb2dVertex
 10
127.5029839090965
 20
-146.4861490519201
 30
0.0
  0
SEQEND
  5
20F
330
20C
100
AcDbEntity
  8
Capa 1
370
    15
  0
ENDBLK
  5
20B
330
208
100
AcDbEntity
  8
0
100
AcDbBlockEnd
  0
BLOCK
  5
212
330
210
100
AcDbEntity
  8
0
100
AcDbBlockBegin
  2
block 62
 70
     0
 71
     0
 10
0.0
 20
0.0
 30
0.0
  3
block 62
  1

  0
POLYLINE
  5
214
330
210
100
AcDbEntity
  8
Capa 1
 62
     7
420
 16777215
370
    15
100
AcDb2dPolyline
 66
     1
 10
0.0
 20
0.0
 30
0.0
  0
VERTEX
  5
215
330
214
100
AcDbEntity
  8
Capa 1
 62
     7
420
 16777215
370
    15
100
AcDbVertex
100
AcDb2dVertex
 10
119.1779106689903
 20
-145.4705349028685
 30
0.0
  0
VERTEX
  5
216
330
214
100
AcDbEntity
  8
Capa 1
 62
     7
420
 16777215
370
    15
100
AcDbVertex
100
AcDb2dVertex
 10
119.1779106689903
 20
-144.8862467085701
 30
0.0
  0
SEQEND
  5
217
330
214
100
AcDbEntity
  8
Capa 1
370
    15
  0
ENDBLK
  5
213
330
210
100
AcDbEntity
  8
0
100
AcDbBlockEnd
  0
BLOCK
  5
21A
330
218
100
AcDbEntity
  8
0
100
AcDbBlockBegin
  2
block 63
 70
     0
 71
     0
 10
0.0
 20
0.0
 30
0.0
  3
block 63
  1

  0
POLYLINE
  5
21C
330
218
100
AcDbEntity
  8
Capa 1
 62
     7
420
 16777215
370
    15
100
AcDb2dPolyline
 66
     1
 10
0.0
 20
0.0
 30
0.0
  0
VERTEX
  5
21D
330
21C
100
AcDbEntity
  8
Capa 1
 62
     7
420
 16777215
370
    15
100
AcDbVertex
100
AcDb2dVertex
 10
118.8030842801951
 20
-144.8862467085701
 30
0.0
  0
VERTEX
  5
21E
330
21C
100
AcDbEntity
  8
Capa 1
 62
     7
420
 16777215
370
    15
100
AcDbVertex
100
AcDb2dVertex
 10
119.1779106689903
 20
-144.8862467085701
 30
0.0
  0
SEQEND
  5
21F
330
21C
100
AcDbEntity
  8
Capa 1
370
    15
  0
ENDBLK
  5
21B
330
218
100
AcDbEntity
  8
0
100
AcDbBlockEnd
  0
BLOCK
  5
222
330
220
100
AcDbEntity
  8
0
100
AcDbBlockBegin
  2
block 64
 70
     0
 71
     0
 10
0.0
 20
0.0
 30
0.0
  3
block 64
  1

  0
POLYLINE
  5
224
330
220
100
AcDbEntity
  8
Capa 1
 62
     7
420
 16777215
370
    15
100
AcDb2dPolyline
 66
     1
 10
0.0
 20
0.0
 30
0.0
  0
VERTEX
  5
225
330
224
100
AcDbEntity
  8
Capa 1
 62
     7
420
 16777215
370
    15
100
AcDbVertex
100
AcDb2dVertex
 10
118.8030842801951
 20
-144.9861544776423
 30
0.0
  0
VERTEX
  5
226
330
224
100
AcDbEntity
  8
Capa 1
 62
     7
420
 16777215
370
    15
100
AcDbVertex
100
AcDb2dVertex
 10
118.8030842801951
 20
-145.8863579279381
 30
0.0
  0
SEQEND
  5
227
330
224
100
AcDbEntity
  8
Capa 1
370
    15
  0
ENDBLK
  5
223
330
220
100
AcDbEntity
  8
0
100
AcDbBlockEnd
  0
BLOCK
  5
22A
330
228
100
AcDbEntity
  8
0
100
AcDbBlockBegin
  2
block 65
 70
     0
 71
     0
 10
0.0
 20
0.0
 30
0.0
  3
block 65
  1

  0
POLYLINE
  5
22C
330
228
100
AcDbEntity
  8
Capa 1
 62
     7
420
 16777215
370
    15
100
AcDb2dPolyline
 66
     1
 10
0.0
 20
0.0
 30
0.0
  0
VERTEX
  5
22D
330
22C
100
AcDbEntity
  8
Capa 1
 62
     7
420
 16777215
370
    15
100
AcDbVertex
100
AcDb2dVertex
 10
120.0529649222437
 20
-149.9364121803978
 30
0.0
  0
VERTEX
  5
22E
330
22C
100
AcDbEntity
  8
Capa 1
 62
     7
420
 16777215
370
    15
100
AcDbVertex
100
AcDb2dVertex
 10
121.7031656596784
 20
-149.9364121803978
 30
0.0
  0
SEQEND
  5
22F
330
22C
100
AcDbEntity
  8
Capa 1
370
    15
  0
ENDBLK
  5
22B
330
228
100
AcDbEntity
  8
0
100
AcDbBlockEnd
  0
BLOCK
  5
232
330
230
100
AcDbEntity
  8
0
100
AcDbBlockBegin
  2
block 66
 70
     0
 71
     0
 10
0.0
 20
0.0
 30
0.0
  3
block 66
  1

  0
POLYLINE
  5
234
330
230
100
AcDbEntity
  8
Capa 1
 62
     7
420
 16777215
370
    15
100
AcDb2dPolyline
 66
     1
 10
0.0
 20
0.0
 30
0.0
  0
VERTEX
  5
235
330
234
100
AcDbEntity
  8
Capa 1
 62
     7
420
 16777215
370
    15
100
AcDbVertex
100
AcDb2dVertex
 10
121.7031656596784
 20
-149.9364121803978
 30
0.0
  0
VERTEX
  5
236
330
234
100
AcDbEntity
  8
Capa 1
 62
     7
420
 16777215
370
    15
100
AcDbVertex
100
AcDb2dVertex
 10
121.7031656596784
 20
-150.6864094675367
 30
0.0
  0
SEQEND
  5
237
330
234
100
AcDbEntity
  8
Capa 1
370
    15
  0
ENDBLK
  5
233
330
230
100
AcDbEntity
  8
0
100
AcDbBlockEnd
  0
BLOCK
  5
23A
330
238
100
AcDbEntity
  8
0
100
AcDbBlockBegin
  2
block 67
 70
     0
 71
     0
 10
0.0
 20
0.0
 30
0.0
  3
block 67
  1

  0
POLYLINE
  5
23C
330
238
100
AcDbEntity
  8
Capa 1
 62
     7
420
 16777215
370
    15
100
AcDb2dPolyline
 66
     1
 10
0.0
 20
0.0
 30
0.0
  0
VERTEX
  5
23D
330
23C
100
AcDbEntity
  8
Capa 1
 62
     7
420
 16777215
370
    15
100
AcDbVertex
100
AcDb2dVertex
 10
122.0028889668951
 20
-150.6864094675367
 30
0.0
  0
VERTEX
  5
23E
330
23C
100
AcDbEntity
  8
Capa 1
 62
     7
420
 16777215
370
    15
100
AcDbVertex
100
AcDb2dVertex
 10
121.7031656596784
 20
-150.6864094675367
 30
0.0
  0
SEQEND
  5
23F
330
23C
100
AcDbEntity
  8
Capa 1
370
    15
  0
ENDBLK
  5
23B
330
238
100
AcDbEntity
  8
0
100
AcDbBlockEnd
  0
BLOCK
  5
242
330
240
100
AcDbEntity
  8
0
100
AcDbBlockBegin
  2
block 68
 70
     0
 71
     0
 10
0.0
 20
0.0
 30
0.0
  3
block 68
  1

  0
SPLINE
  5
244
330
240
100
AcDbEntity
  8
Capa 1
 62
     7
420
 16777215
370
    15
100
AcDbSpline
210
0.0
220
0.0
230
1.0
 70
     8
 71
     3
 72
    20
 73
    16
 74
     0
 42
0.0000000001
 43
0.0000000001
 40
0.0
 40
0.0
 40
0.0
 40
0.0
 40
1.0
 40
1.0
 40
1.0
 40
2.0
 40
2.0
 40
2.0
 40
3.0
 40
3.0
 40
3.0
 40
4.0
 40
4.0
 40
4.0
 40
5.0
 40
5.0
 40
5.0
 40
5.0
 10
121.4030978429131
 20
-146.8864691473062
 30
0.0
 10
121.4041313715587
 20
-146.897493452859
 30
0.0
 10
121.4055094097528
 20
-146.9088622679603
 30
0.0
 10
121.4086099956895
 20
-146.9195420639646
 30
0.0
 10
121.4120550911748
 20
-146.9298773504203
 30
0.0
 10
121.4179117534997
 20
-146.9402126368761
 30
0.0
 10
121.4248019444702
 20
-146.9488253755892
 30
0.0
 10
121.4320366449892
 20
-146.9574381143023
 30
0.0
 10
121.4406493837023
 20
-146.9650173243699
 30
0.0
 10
121.450295651061
 20
-146.9712184962433
 30
0.0
 10
121.4595974088712
 20
-146.9774196681168
 30
0.0
 10
121.4702772048755
 20
-146.9815537826991
 30
0.0
 10
121.4813015104283
 20
-146.9839653495387
 30
0.0
 10
121.4881917013988
 20
-146.9853433877328
 30
0.0
 10
121.4957709114663
 20
-146.9856878972814
 30
0.0
 10
121.5030056119854
 20
-146.9863769163784
 30
0.0
  0
ENDBLK
  5
243
330
240
100
AcDbEntity
  8
0
100
AcDbBlockEnd
  0
BLOCK
  5
247
330
245
100
AcDbEntity
  8
0
100
AcDbBlockBegin
  2
block 69
 70
     0
 71
     0
 10
0.0
 20
0.0
 30
0.0
  3
block 69
  1

  0
POLYLINE
  5
249
330
245
100
AcDbEntity
  8
Capa 1
 62
     7
420
 16777215
370
    15
100
AcDb2dPolyline
 66
     1
 10
0.0
 20
0.0
 30
0.0
  0
VERTEX
  5
24A
330
249
100
AcDbEntity
  8
Capa 1
 62
     7
420
 16777215
370
    15
100
AcDbVertex
100
AcDb2dVertex
 10
121.4030978429131
 20
-145.8863579279381
 30
0.0
  0
VERTEX
  5
24B
330
249
100
AcDbEntity
  8
Capa 1
 62
     7
420
 16777215
370
    15
100
AcDbVertex
100
AcDb2dVertex
 10
121.4030978429131
 20
-146.8864691473062
 30
0.0
  0
SEQEND
  5
24C
330
249
100
AcDbEntity
  8
Capa 1
370
    15
  0
ENDBLK
  5
248
330
245
100
AcDbEntity
  8
0
100
AcDbBlockEnd
  0
BLOCK
  5
24F
330
24D
100
AcDbEntity
  8
0
100
AcDbBlockBegin
  2
block 70
 70
     0
 71
     0
 10
0.0
 20
0.0
 30
0.0
  3
block 70
  1

  0
POLYLINE
  5
251
330
24D
100
AcDbEntity
  8
Capa 1
 62
     7
420
 16777215
370
    15
100
AcDb2dPolyline
 66
     1
 10
0.0
 20
0.0
 30
0.0
  0
VERTEX
  5
252
330
251
100
AcDbEntity
  8
Capa 1
 62
     7
420
 16777215
370
    15
100
AcDbVertex
100
AcDb2dVertex
 10
121.7031656596784
 20
-146.4861490519201
 30
0.0
  0
VERTEX
  5
253
330
251
100
AcDbEntity
  8
Capa 1
 62
     7
420
 16777215
370
    15
100
AcDbVertex
100
AcDb2dVertex
 10
122.0028889668951
 20
-146.4861490519201
 30
0.0
  0
SEQEND
  5
254
330
251
100
AcDbEntity
  8
Capa 1
370
    15
  0
ENDBLK
  5
250
330
24D
100
AcDbEntity
  8
0
100
AcDbBlockEnd
  0
BLOCK
  5
257
330
255
100
AcDbEntity
  8
0
100
AcDbBlockBegin
  2
block 71
 70
     0
 71
     0
 10
0.0
 20
0.0
 30
0.0
  3
block 71
  1

  0
POLYLINE
  5
259
330
255
100
AcDbEntity
  8
Capa 1
 62
     7
420
 16777215
370
    15
100
AcDb2dPolyline
 66
     1
 10
0.0
 20
0.0
 30
0.0
  0
VERTEX
  5
25A
330
259
100
AcDbEntity
  8
Capa 1
 62
     7
420
 16777215
370
    15
100
AcDbVertex
100
AcDb2dVertex
 10
121.7031656596784
 20
-146.4861490519201
 30
0.0
  0
VERTEX
  5
25B
330
259
100
AcDbEntity
  8
Capa 1
 62
     7
420
 16777215
370
    15
100
AcDbVertex
100
AcDb2dVertex
 10
121.7031656596784
 20
-146.9863769163784
 30
0.0
  0
SEQEND
  5
25C
330
259
100
AcDbEntity
  8
Capa 1
370
    15
  0
ENDBLK
  5
258
330
255
100
AcDbEntity
  8
0
100
AcDbBlockEnd
  0
BLOCK
  5
25F
330
25D
100
AcDbEntity
  8
0
100
AcDbBlockBegin
  2
block 72
 70
     0
 71
     0
 10
0.0
 20
0.0
 30
0.0
  3
block 72
  1

  0
POLYLINE
  5
261
330
25D
100
AcDbEntity
  8
Capa 1
 62
     7
420
 16777215
370
    15
100
AcDb2dPolyline
 66
     1
 10
0.0
 20
0.0
 30
0.0
  0
VERTEX
  5
262
330
261
100
AcDbEntity
  8
Capa 1
 62
     7
420
 16777215
370
    15
100
AcDbVertex
100
AcDb2dVertex
 10
121.5030056119854
 20
-146.9863769163784
 30
0.0
  0
VERTEX
  5
263
330
261
100
AcDbEntity
  8
Capa 1
 62
     7
420
 16777215
370
    15
100
AcDbVertex
100
AcDb2dVertex
 10
121.7031656596784
 20
-146.9863769163784
 30
0.0
  0
SEQEND
  5
264
330
261
100
AcDbEntity
  8
Capa 1
370
    15
  0
ENDBLK
  5
260
330
25D
100
AcDbEntity
  8
0
100
AcDbBlockEnd
  0
BLOCK
  5
267
330
265
100
AcDbEntity
  8
0
100
AcDbBlockBegin
  2
block 73
 70
     0
 71
     0
 10
0.0
 20
0.0
 30
0.0
  3
block 73
  1

  0
POLYLINE
  5
269
330
265
100
AcDbEntity
  8
Capa 1
 62
     7
420
 16777215
370
    15
100
AcDb2dPolyline
 66
     1
 10
0.0
 20
0.0
 30
0.0
  0
VERTEX
  5
26A
330
269
100
AcDbEntity
  8
Capa 1
 62
     7
420
 16777215
370
    15
100
AcDbVertex
100
AcDb2dVertex
 10
121.3028455642924
 20
-145.8863579279381
 30
0.0
  0
VERTEX
  5
26B
330
269
100
AcDbEntity
  8
Capa 1
 62
     7
420
 16777215
370
    15
100
AcDbVertex
100
AcDb2dVertex
 10
121.4030978429131
 20
-145.8863579279381
 30
0.0
  0
SEQEND
  5
26C
330
269
100
AcDbEntity
  8
Capa 1
370
    15
  0
ENDBLK
  5
268
330
265
100
AcDbEntity
  8
0
100
AcDbBlockEnd
  0
BLOCK
  5
26F
330
26D
100
AcDbEntity
  8
0
100
AcDbBlockBegin
  2
block 74
 70
     0
 71
     0
 10
0.0
 20
0.0
 30
0.0
  3
block 74
  1

  0
POLYLINE
  5
271
330
26D
100
AcDbEntity
  8
Capa 1
 62
     7
420
 16777215
370
    15
100
AcDb2dPolyline
 66
     1
 10
0.0
 20
0.0
 30
0.0
  0
VERTEX
  5
272
330
271
100
AcDbEntity
  8
Capa 1
 62
     7
420
 16777215
370
    15
100
AcDbVertex
100
AcDb2dVertex
 10
121.3028455642924
 20
-145.8863579279381
 30
0.0
  0
VERTEX
  5
273
330
271
100
AcDbEntity
  8
Capa 1
 62
     7
420
 16777215
370
    15
100
AcDbVertex
100
AcDb2dVertex
 10
121.3028455642924
 20
-144.8862467085701
 30
0.0
  0
SEQEND
  5
274
330
271
100
AcDbEntity
  8
Capa 1
370
    15
  0
ENDBLK
  5
270
330
26D
100
AcDbEntity
  8
0
100
AcDbBlockEnd
  0
BLOCK
  5
277
330
275
100
AcDbEntity
  8
0
100
AcDbBlockBegin
  2
block 75
 70
     0
 71
     0
 10
0.0
 20
0.0
 30
0.0
  3
block 75
  1

  0
POLYLINE
  5
279
330
275
100
AcDbEntity
  8
Capa 1
 62
     7
420
 16777215
370
    15
100
AcDb2dPolyline
 66
     1
 10
0.0
 20
0.0
 30
0.0
  0
VERTEX
  5
27A
330
279
100
AcDbEntity
  8
Capa 1
 62
     7
420
 16777215
370
    15
100
AcDbVertex
100
AcDb2dVertex
 10
120.9280191754972
 20
-144.8862467085701
 30
0.0
  0
VERTEX
  5
27B
330
279
100
AcDbEntity
  8
Capa 1
 62
     7
420
 16777215
370
    15
100
AcDbVertex
100
AcDb2dVertex
 10
121.3028455642924
 20
-144.8862467085701
 30
0.0
  0
SEQEND
  5
27C
330
279
100
AcDbEntity
  8
Capa 1
370
    15
  0
ENDBLK
  5
278
330
275
100
AcDbEntity
  8
0
100
AcDbBlockEnd
  0
BLOCK
  5
27F
330
27D
100
AcDbEntity
  8
0
100
AcDbBlockBegin
  2
block 76
 70
     0
 71
     0
 10
0.0
 20
0.0
 30
0.0
  3
block 76
  1

  0
POLYLINE
  5
281
330
27D
100
AcDbEntity
  8
Capa 1
 62
     7
420
 16777215
370
    15
100
AcDb2dPolyline
 66
     1
 10
0.0
 20
0.0
 30
0.0
  0
VERTEX
  5
282
330
281
100
AcDbEntity
  8
Capa 1
 62
     7
420
 16777215
370
    15
100
AcDbVertex
100
AcDb2dVertex
 10
120.9280191754972
 20
-144.8862467085701
 30
0.0
  0
VERTEX
  5
283
330
281
100
AcDbEntity
  8
Capa 1
 62
     7
420
 16777215
370
    15
100
AcDbVertex
100
AcDb2dVertex
 10
120.9280191754972
 20
-145.5838785443332
 30
0.0
  0
SEQEND
  5
284
330
281
100
AcDbEntity
  8
Capa 1
370
    15
  0
ENDBLK
  5
280
330
27D
100
AcDbEntity
  8
0
100
AcDbBlockEnd
  0
BLOCK
  5
287
330
285
100
AcDbEntity
  8
0
100
AcDbBlockBegin
  2
block 77
 70
     0
 71
     0
 10
0.0
 20
0.0
 30
0.0
  3
block 77
  1

  0
POLYLINE
  5
289
330
285
100
AcDbEntity
  8
Capa 1
 62
     7
420
 16777215
370
    15
100
AcDb2dPolyline
 66
     1
 10
0.0
 20
0.0
 30
0.0
  0
VERTEX
  5
28A
330
289
100
AcDbEntity
  8
Capa 1
 62
     7
420
 16777215
370
    15
100
AcDbVertex
100
AcDb2dVertex
 10
120.9280191754972
 20
-144.8862467085701
 30
0.0
  0
VERTEX
  5
28B
330
289
100
AcDbEntity
  8
Capa 1
 62
     7
420
 16777215
370
    15
100
AcDbVertex
100
AcDb2dVertex
 10
119.1779106689903
 20
-144.8862467085701
 30
0.0
  0
SEQEND
  5
28C
330
289
100
AcDbEntity
  8
Capa 1
370
    15
  0
ENDBLK
  5
288
330
285
100
AcDbEntity
  8
0
100
AcDbBlockEnd
  0
BLOCK
  5
28F
330
28D
100
AcDbEntity
  8
0
100
AcDbBlockBegin
  2
block 78
 70
     0
 71
     0
 10
0.0
 20
0.0
 30
0.0
  3
block 78
  1

  0
SPLINE
  5
291
330
28D
100
AcDbEntity
  8
Capa 1
 62
     7
420
 16777215
370
    15
100
AcDbSpline
210
0.0
220
0.0
230
1.0
 70
     8
 71
     3
 72
    14
 73
    10
 74
     0
 42
0.0000000001
 43
0.0000000001
 40
0.0
 40
0.0
 40
0.0
 40
0.0
 40
1.0
 40
1.0
 40
1.0
 40
2.0
 40
2.0
 40
2.0
 40
3.0
 40
3.0
 40
3.0
 40
3.0
 10
118.8030842801951
 20
-145.5797444297509
 30
0.0
 10
119.0042778565337
 20
-145.4994737049446
 30
0.0
 10
119.2213188721044
 20
-145.4471082535688
 30
0.0
 10
119.4366373399325
 20
-145.4457302153747
 30
0.0
 10
119.8245550915716
 20
-145.4429741389865
 30
0.0
 10
120.2073051999829
 20
-145.6055826458903
 30
0.0
 10
120.5897107988456
 20
-145.6124728368608
 30
0.0
 10
120.8274223873279
 20
-145.6172959705401
 30
0.0
 10
121.0651339758101
 20
-145.5614854236791
 30
0.0
 10
121.3028455642924
 20
-145.4967176285564
 30
0.0
  0
ENDBLK
  5
290
330
28D
100
AcDbEntity
  8
0
100
AcDbBlockEnd
  0
BLOCK
  5
294
330
292
100
AcDbEntity
  8
0
100
AcDbBlockBegin
  2
block 79
 70
     0
 71
     0
 10
0.0
 20
0.0
 30
0.0
  3
block 79
  1

  0
SPLINE
  5
296
330
292
100
AcDbEntity
  8
Capa 1
 62
     7
420
 16777215
370
    15
100
AcDbSpline
210
0.0
220
0.0
230
1.0
 70
     8
 71
     3
 72
    11
 73
     7
 74
     0
 42
0.0000000001
 43
0.0000000001
 40
0.0
 40
0.0
 40
0.0
 40
0.0
 40
1.0
 40
1.0
 40
1.0
 40
2.0
 40
2.0
 40
2.0
 40
2.0
 10
120.0529649222437
 20
-147.3363986176798
 30
0.0
 10
119.3625677869996
 20
-147.3363986176798
 30
0.0
 10
118.8030842801951
 20
-147.8958821244844
 30
0.0
 10
118.8030842801951
 20
-148.5862792597284
 30
0.0
 10
118.8030842801951
 20
-149.2766763949725
 30
0.0
 10
119.3625677869996
 20
-149.8361599017771
 30
0.0
 10
120.0529649222437
 20
-149.8361599017771
 30
0.0
  0
ENDBLK
  5
295
330
292
100
AcDbEntity
  8
0
100
AcDbBlockEnd
  0
BLOCK
  5
299
330
297
100
AcDbEntity
  8
0
100
AcDbBlockBegin
  2
block 80
 70
     0
 71
     0
 10
0.0
 20
0.0
 30
0.0
  3
block 80
  1

  0
POLYLINE
  5
29B
330
297
100
AcDbEntity
  8
Capa 1
 62
     7
420
 16777215
370
    15
100
AcDb2dPolyline
 66
     1
 10
0.0
 20
0.0
 30
0.0
  0
VERTEX
  5
29C
330
29B
100
AcDbEntity
  8
Capa 1
 62
     7
420
 16777215
370
    15
100
AcDbVertex
100
AcDb2dVertex
 10
122.0028889668951
 20
-149.904372792385
 30
0.0
  0
VERTEX
  5
29D
330
29B
100
AcDbEntity
  8
Capa 1
 62
     7
420
 16777215
370
    15
100
AcDbVertex
100
AcDb2dVertex
 10
122.0028889668951
 20
-147.2681857270719
 30
0.0
  0
SEQEND
  5
29E
330
29B
100
AcDbEntity
  8
Capa 1
370
    15
  0
ENDBLK
  5
29A
330
297
100
AcDbEntity
  8
0
100
AcDbBlockEnd
  0
BLOCK
  5
2A1
330
29F
100
AcDbEntity
  8
0
100
AcDbBlockBegin
  2
block 81
 70
     0
 71
     0
 10
0.0
 20
0.0
 30
0.0
  3
block 81
  1

  0
SPLINE
  5
2A3
330
29F
100
AcDbEntity
  8
Capa 1
 62
     7
420
 16777215
370
    15
100
AcDbSpline
210
0.0
220
0.0
230
1.0
 70
     8
 71
     3
 72
     8
 73
     4
 74
     0
 42
0.0000000001
 43
0.0000000001
 40
0.0
 40
0.0
 40
0.0
 40
0.0
 40
1.0
 40
1.0
 40
1.0
 40
1.0
 10
121.3028455642924
 20
-148.5862792597284
 30
0.0
 10
121.3028455642924
 20
-147.8958821244844
 30
0.0
 10
120.7433620574878
 20
-147.3363986176798
 30
0.0
 10
120.0529649222437
 20
-147.3363986176798
 30
0.0
  0
ENDBLK
  5
2A2
330
29F
100
AcDbEntity
  8
0
100
AcDbBlockEnd
  0
BLOCK
  5
2A6
330
2A4
100
AcDbEntity
  8
0
100
AcDbBlockBegin
  2
block 82
 70
     0
 71
     0
 10
0.0
 20
0.0
 30
0.0
  3
block 82
  1

  0
SPLINE
  5
2A8
330
2A4
100
AcDbEntity
  8
Capa 1
 62
     7
420
 16777215
370
    15
100
AcDbSpline
210
0.0
220
0.0
230
1.0
 70
     8
 71
     3
 72
     8
 73
     4
 74
     0
 42
0.0000000001
 43
0.0000000001
 40
0.0
 40
0.0
 40
0.0
 40
0.0
 40
1.0
 40
1.0
 40
1.0
 40
1.0
 10
120.0529649222437
 20
-149.8361599017771
 30
0.0
 10
120.7433620574878
 20
-149.8361599017771
 30
0.0
 10
121.3028455642924
 20
-149.2766763949725
 30
0.0
 10
121.3028455642924
 20
-148.5862792597284
 30
0.0
  0
ENDBLK
  5
2A7
330
2A4
100
AcDbEntity
  8
0
100
AcDbBlockEnd
  0
BLOCK
  5
2AB
330
2A9
100
AcDbEntity
  8
0
100
AcDbBlockBegin
  2
block 83
 70
     0
 71
     0
 10
0.0
 20
0.0
 30
0.0
  3
block 83
  1

  0
POLYLINE
  5
2AD
330
2A9
100
AcDbEntity
  8
Capa 1
 62
     7
420
 16777215
370
    15
100
AcDb2dPolyline
 66
     1
 10
0.0
 20
0.0
 30
0.0
  0
VERTEX
  5
2AE
330
2AD
100
AcDbEntity
  8
Capa 1
 62
     7
420
 16777215
370
    15
100
AcDbVertex
100
AcDb2dVertex
 10
122.0028889668951
 20
-148.5862792597284
 30
0.0
  0
VERTEX
  5
2AF
330
2AD
100
AcDbEntity
  8
Capa 1
 62
     7
420
 16777215
370
    15
100
AcDbVertex
100
AcDb2dVertex
 10
122.0028889668951
 20
-150.6864094675367
 30
0.0
  0
SEQEND
  5
2B0
330
2AD
100
AcDbEntity
  8
Capa 1
370
    15
  0
ENDBLK
  5
2AC
330
2A9
100
AcDbEntity
  8
0
100
AcDbBlockEnd
  0
BLOCK
  5
2B3
330
2B1
100
AcDbEntity
  8
0
100
AcDbBlockBegin
  2
block 84
 70
     0
 71
     0
 10
0.0
 20
0.0
 30
0.0
  3
block 84
  1

  0
POLYLINE
  5
2B5
330
2B1
100
AcDbEntity
  8
Capa 1
 62
     7
420
 16777215
370
    15
100
AcDb2dPolyline
 66
     1
 10
0.0
 20
0.0
 30
0.0
  0
VERTEX
  5
2B6
330
2B5
100
AcDbEntity
  8
Capa 1
 62
     7
420
 16777215
370
    15
100
AcDbVertex
100
AcDb2dVertex
 10
122.0028889668951
 20
-146.4861490519201
 30
0.0
  0
VERTEX
  5
2B7
330
2B5
100
AcDbEntity
  8
Capa 1
 62
     7
420
 16777215
370
    15
100
AcDbVertex
100
AcDb2dVertex
 10
122.0028889668951
 20
-148.5862792597284
 30
0.0
  0
SEQEND
  5
2B8
330
2B5
100
AcDbEntity
  8
Capa 1
370
    15
  0
ENDBLK
  5
2B4
330
2B1
100
AcDbEntity
  8
0
100
AcDbBlockEnd
  0
BLOCK
  5
2BB
330
2B9
100
AcDbEntity
  8
0
100
AcDbBlockBegin
  2
block 85
 70
     0
 71
     0
 10
0.0
 20
0.0
 30
0.0
  3
block 85
  1

  0
POLYLINE
  5
2BD
330
2B9
100
AcDbEntity
  8
Capa 1
 62
     7
420
 16777215
370
    15
100
AcDb2dPolyline
 66
     1
 10
0.0
 20
0.0
 30
0.0
  0
VERTEX
  5
2BE
330
2BD
100
AcDbEntity
  8
Capa 1
 62
     7
420
 16777215
370
    15
100
AcDbVertex
100
AcDb2dVertex
 10
121.7031656596784
 20
-149.8940375059293
 30
0.0
  0
VERTEX
  5
2BF
330
2BD
100
AcDbEntity
  8
Capa 1
 62
     7
420
 16777215
370
    15
100
AcDbVertex
100
AcDb2dVertex
 10
121.7031656596784
 20
-146.9863769163784
 30
0.0
  0
SEQEND
  5
2C0
330
2BD
100
AcDbEntity
  8
Capa 1
370
    15
  0
ENDBLK
  5
2BC
330
2B9
100
AcDbEntity
  8
0
100
AcDbBlockEnd
  0
BLOCK
  5
2C3
330
2C1
100
AcDbEntity
  8
0
100
AcDbBlockBegin
  2
block 86
 70
     0
 71
     0
 10
0.0
 20
0.0
 30
0.0
  3
block 86
  1

  0
SPLINE
  5
2C5
330
2C1
100
AcDbEntity
  8
Capa 1
 62
     7
420
 16777215
370
    15
100
AcDbSpline
210
0.0
220
0.0
230
1.0
 70
     8
 71
     3
 72
    14
 73
    10
 74
     0
 42
0.0000000001
 43
0.0000000001
 40
0.0
 40
0.0
 40
0.0
 40
0.0
 40
1.0
 40
1.0
 40
1.0
 40
2.0
 40
2.0
 40
2.0
 40
3.0
 40
3.0
 40
3.0
 40
3.0
 10
91.87931855341907
 20
-145.2073296077954
 30
0.0
 10
92.07362193878716
 20
-145.1325710357655
 30
0.0
 10
92.28136119654772
 20
-145.084339698972
 30
0.0
 10
92.48806692566271
 20
-145.0829616607779
 30
0.0
 10
92.87598467730184
 20
-145.0805500939382
 30
0.0
 10
93.25839027616458
 20
-145.2428140912935
 30
0.0
 10
93.64079587502731
 20
-145.2500487918125
 30
0.0
 10
93.88746471177119
 20
-145.2548719254918
 30
0.0
 10
94.13344452941803
 20
-145.1949272640485
 30
0.0
 10
94.37942434706487
 20
-145.1274033925376
 30
0.0
  0
ENDBLK
  5
2C4
330
2C1
100
AcDbEntity
  8
0
100
AcDbBlockEnd
  0
BLOCK
  5
2C8
330
2C6
100
AcDbEntity
  8
0
100
AcDbBlockBegin
  2
block 87
 70
     0
 71
     0
 10
0.0
 20
0.0
 30
0.0
  3
block 87
  1

  0
SPLINE
  5
2CA
330
2C6
100
AcDbEntity
  8
Capa 1
 62
     7
420
 16777215
370
    15
100
AcDbSpline
210
0.0
220
0.0
230
1.0
 70
     8
 71
     3
 72
    14
 73
    10
 74
     0
 42
0.0000000001
 43
0.0000000001
 40
0.0
 40
0.0
 40
0.0
 40
0.0
 40
1.0
 40
1.0
 40
1.0
 40
2.0
 40
2.0
 40
2.0
 40
3.0
 40
3.0
 40
3.0
 40
3.0
 10
90.11301809813148
 20
-149.4737358567288
 30
0.0
 10
90.03825952610156
 20
-149.2794324713607
 30
0.0
 10
89.99002818930805
 20
-149.0716932136001
 30
0.0
 10
89.98865015111396
 20
-148.8653319940337
 30
0.0
 10
89.98589407472575
 20
-148.4774142423945
 30
0.0
 10
90.14850258162954
 20
-148.0943196244347
 30
0.0
 10
90.15573728214856
 20
-147.711914025572
 30
0.0
 10
90.16021590627939
 20
-147.4659342079252
 30
0.0
 10
90.10044349961031
 20
-147.2199543902784
 30
0.0
 10
90.03309188287368
 20
-146.9739745726315
 30
0.0
  0
ENDBLK
  5
2C9
330
2C6
100
AcDbEntity
  8
0
100
AcDbBlockEnd
  0
BLOCK
  5
2CD
330
2CB
100
AcDbEntity
  8
0
100
AcDbBlockBegin
  2
block 88
 70
     0
 71
     0
 10
0.0
 20
0.0
 30
0.0
  3
block 88
  1

  0
SPLINE
  5
2CF
330
2CB
100
AcDbEntity
  8
Capa 1
 62
     7
420
 16777215
370
    15
100
AcDbSpline
210
0.0
220
0.0
230
1.0
 70
     8
 71
     3
 72
    14
 73
    10
 74
     0
 42
0.0000000001
 43
0.0000000001
 40
0.0
 40
0.0
 40
0.0
 40
0.0
 40
1.0
 40
1.0
 40
1.0
 40
2.0
 40
2.0
 40
2.0
 40
3.0
 40
3.0
 40
3.0
 40
3.0
 10
96.14675833099804
 20
-146.9739745726315
 30
0.0
 10
96.22117239347943
 20
-147.167244429354
 30
0.0
 10
96.26871471117587
 20
-147.3742946680175
 30
0.0
 10
96.27009274936998
 20
-147.5796223589384
 30
0.0
 10
96.27284882575817
 20
-147.9675401105776
 30
0.0
 10
96.1102403188544
 20
-148.3502902189888
 30
0.0
 10
96.10335012788389
 20
-148.7330403274001
 30
0.0
 10
96.09852699420453
 20
-148.979709164144
 30
0.0
 10
96.15881616519641
 20
-149.2270670199849
 30
0.0
 10
96.22668454625584
 20
-149.4737358567288
 30
0.0
  0
ENDBLK
  5
2CE
330
2CB
100
AcDbEntity
  8
0
100
AcDbBlockEnd
  0
BLOCK
  5
2D2
330
2D0
100
AcDbEntity
  8
0
100
AcDbBlockBegin
  2
block 89
 70
     0
 71
     0
 10
0.0
 20
0.0
 30
0.0
  3
block 89
  1

  0
POLYLINE
  5
2D4
330
2D0
100
AcDbEntity
  8
Capa 1
 62
     7
420
 16777215
370
    15
100
AcDb2dPolyline
 66
     1
 10
0.0
 20
0.0
 30
0.0
  0
VERTEX
  5
2D5
330
2D4
100
AcDbEntity
  8
Capa 1
 62
     7
420
 16777215
370
    15
100
AcDbVertex
100
AcDb2dVertex
 10
127.5029839090965
 20
-146.4861490519201
 30
0.0
  0
VERTEX
  5
2D6
330
2D4
100
AcDbEntity
  8
Capa 1
 62
     7
420
 16777215
370
    15
100
AcDbVertex
100
AcDb2dVertex
 10
127.5029839090965
 20
-142.7287556609324
 30
0.0
  0
SEQEND
  5
2D7
330
2D4
100
AcDbEntity
  8
Capa 1
370
    15
  0
ENDBLK
  5
2D3
330
2D0
100
AcDbEntity
  8
0
100
AcDbBlockEnd
  0
BLOCK
  5
2DA
330
2D8
100
AcDbEntity
  8
0
100
AcDbBlockBegin
  2
block 90
 70
     0
 71
     0
 10
0.0
 20
0.0
 30
0.0
  3
block 90
  1

  0
POLYLINE
  5
2DC
330
2D8
100
AcDbEntity
  8
Capa 1
 62
     7
420
 16777215
370
    15
100
AcDb2dPolyline
 66
     1
 10
0.0
 20
0.0
 30
0.0
  0
VERTEX
  5
2DD
330
2DC
100
AcDbEntity
  8
Capa 1
 62
     7
420
 16777215
370
    15
100
AcDbVertex
100
AcDb2dVertex
 10
127.103008323259
 20
-146.4861490519201
 30
0.0
  0
VERTEX
  5
2DE
330
2DC
100
AcDbEntity
  8
Capa 1
 62
     7
420
 16777215
370
    15
100
AcDbVertex
100
AcDb2dVertex
 10
127.103008323259
 20
-142.7287556609324
 30
0.0
  0
SEQEND
  5
2DF
330
2DC
100
AcDbEntity
  8
Capa 1
370
    15
  0
ENDBLK
  5
2DB
330
2D8
100
AcDbEntity
  8
0
100
AcDbBlockEnd
  0
BLOCK
  5
2E2
330
2E0
100
AcDbEntity
  8
0
100
AcDbBlockBegin
  2
block 91
 70
     0
 71
     0
 10
0.0
 20
0.0
 30
0.0
  3
block 91
  1

  0
POLYLINE
  5
2E4
330
2E0
100
AcDbEntity
  8
Capa 1
 62
     7
420
 16777215
370
    15
100
AcDb2dPolyline
 66
     1
 10
0.0
 20
0.0
 30
0.0
  0
VERTEX
  5
2E5
330
2E4
100
AcDbEntity
  8
Capa 1
 62
     7
420
 16777215
370
    15
100
AcDbVertex
100
AcDb2dVertex
 10
127.103008323259
 20
-142.7287556609324
 30
0.0
  0
VERTEX
  5
2E6
330
2E4
100
AcDbEntity
  8
Capa 1
 62
     7
420
 16777215
370
    15
100
AcDbVertex
100
AcDb2dVertex
 10
127.5029839090965
 20
-142.7287556609324
 30
0.0
  0
SEQEND
  5
2E7
330
2E4
100
AcDbEntity
  8
Capa 1
370
    15
  0
ENDBLK
  5
2E3
330
2E0
100
AcDbEntity
  8
0
100
AcDbBlockEnd
  0
BLOCK
  5
2EA
330
2E8
100
AcDbEntity
  8
0
100
AcDbBlockBegin
  2
block 92
 70
     0
 71
     0
 10
0.0
 20
0.0
 30
0.0
  3
block 92
  1

  0
POLYLINE
  5
2EC
330
2E8
100
AcDbEntity
  8
Capa 1
 62
     7
420
 16777215
370
    15
100
AcDb2dPolyline
 66
     1
 10
0.0
 20
0.0
 30
0.0
  0
VERTEX
  5
2ED
330
2EC
100
AcDbEntity
  8
Capa 1
 62
     7
420
 16777215
370
    15
100
AcDbVertex
100
AcDb2dVertex
 10
127.5029839090965
 20
-150.6864094675367
 30
0.0
  0
VERTEX
  5
2EE
330
2EC
100
AcDbEntity
  8
Capa 1
 62
     7
420
 16777215
370
    15
100
AcDbVertex
100
AcDb2dVertex
 10
127.5029839090965
 20
-154.4439751132987
 30
0.0
  0
SEQEND
  5
2EF
330
2EC
100
AcDbEntity
  8
Capa 1
370
    15
  0
ENDBLK
  5
2EB
330
2E8
100
AcDbEntity
  8
0
100
AcDbBlockEnd
  0
BLOCK
  5
2F2
330
2F0
100
AcDbEntity
  8
0
100
AcDbBlockBegin
  2
block 93
 70
     0
 71
     0
 10
0.0
 20
0.0
 30
0.0
  3
block 93
  1

  0
POLYLINE
  5
2F4
330
2F0
100
AcDbEntity
  8
Capa 1
 62
     7
420
 16777215
370
    15
100
AcDb2dPolyline
 66
     1
 10
0.0
 20
0.0
 30
0.0
  0
VERTEX
  5
2F5
330
2F4
100
AcDbEntity
  8
Capa 1
 62
     7
420
 16777215
370
    15
100
AcDbVertex
100
AcDb2dVertex
 10
127.103008323259
 20
-150.6864094675367
 30
0.0
  0
VERTEX
  5
2F6
330
2F4
100
AcDbEntity
  8
Capa 1
 62
     7
420
 16777215
370
    15
100
AcDbVertex
100
AcDb2dVertex
 10
127.103008323259
 20
-154.4439751132987
 30
0.0
  0
SEQEND
  5
2F7
330
2F4
100
AcDbEntity
  8
Capa 1
370
    15
  0
ENDBLK
  5
2F3
330
2F0
100
AcDbEntity
  8
0
100
AcDbBlockEnd
  0
BLOCK
  5
2FA
330
2F8
100
AcDbEntity
  8
0
100
AcDbBlockBegin
  2
block 94
 70
     0
 71
     0
 10
0.0
 20
0.0
 30
0.0
  3
block 94
  1

  0
POLYLINE
  5
2FC
330
2F8
100
AcDbEntity
  8
Capa 1
 62
     7
420
 16777215
370
    15
100
AcDb2dPolyline
 66
     1
 10
0.0
 20
0.0
 30
0.0
  0
VERTEX
  5
2FD
330
2FC
100
AcDbEntity
  8
Capa 1
 62
     7
420
 16777215
370
    15
100
AcDbVertex
100
AcDb2dVertex
 10
127.103008323259
 20
-154.4439751132987
 30
0.0
  0
VERTEX
  5
2FE
330
2FC
100
AcDbEntity
  8
Capa 1
 62
     7
420
 16777215
370
    15
100
AcDbVertex
100
AcDb2dVertex
 10
127.5029839090965
 20
-154.4439751132987
 30
0.0
  0
SEQEND
  5
2FF
330
2FC
100
AcDbEntity
  8
Capa 1
370
    15
  0
ENDBLK
  5
2FB
330
2F8
100
AcDbEntity
  8
0
100
AcDbBlockEnd
  0
BLOCK
  5
302
330
300
100
AcDbEntity
  8
0
100
AcDbBlockBegin
  2
block 95
 70
     0
 71
     0
 10
0.0
 20
0.0
 30
0.0
  3
block 95
  1

  0
SPLINE
  5
304
330
300
100
AcDbEntity
  8
Capa 1
  6
AI-Linetype-1
 62
     7
420
 16777215
370
    15
100
AcDbSpline
210
0.0
220
0.0
230
1.0
 70
     8
 71
     3
 72
    32
 73
    28
 74
     0
 42
0.0000000001
 43
0.0000000001
 40
0.0
 40
0.0
 40
0.0
 40
0.0
 40
1.0
 40
1.0
 40
1.0
 40
2.0
 40
2.0
 40
2.0
 40
3.0
 40
3.0
 40
3.0
 40
4.0
 40
4.0
 40
4.0
 40
5.0
 40
5.0
 40
5.0
 40
6.0
 40
6.0
 40
6.0
 40
7.0
 40
7.0
 40
7.0
 40
8.0
 40
8.0
 40
8.0
 40
9.0
 40
9.0
 40
9.0
 40
9.0
 10
91.23474118812882
 20
-153.7187825136537
 30
0.0
 10
91.23474118812882
 20
-153.7187825136537
 30
0.0
 10
89.13443872554626
 20
-153.7187825136537
 30
0.0
 10
89.13443872554626
 20
-153.7187825136537
 30
0.0
 10
88.30589326134367
 20
-153.7187825136537
 30
0.0
 10
87.63444415126848
 20
-153.0469888940299
 30
0.0
 10
87.63444415126848
 20
-152.2187879393759
 30
0.0
 10
87.63444415126848
 20
-152.2187879393759
 30
0.0
 10
87.63444415126848
 20
-144.2185872035287
 30
0.0
 10
87.63444415126848
 20
-144.2185872035287
 30
0.0
 10
87.63444415126848
 20
-143.3903862488746
 30
0.0
 10
88.30589326134367
 20
-142.7187648840252
 30
0.0
 10
89.13443872554626
 20
-142.7187648840252
 30
0.0
 10
89.13443872554626
 20
-142.7187648840252
 30
0.0
 10
97.13446720661916
 20
-142.7187648840252
 30
0.0
 10
97.13446720661916
 20
-142.7187648840252
 30
0.0
 10
97.96301267082175
 20
-142.7187648840252
 30
0.0
 10
98.63446178089694
 20
-143.3903862488746
 30
0.0
 10
98.63446178089694
 20
-144.2185872035287
 30
0.0
 10
98.63446178089694
 20
-144.2185872035287
 30
0.0
 10
98.63446178089694
 20
-152.2187879393759
 30
0.0
 10
98.63446178089694
 20
-152.2187879393759
 30
0.0
 10
98.63446178089694
 20
-153.0469888940299
 30
0.0
 10
97.96301267082175
 20
-153.7187825136537
 30
0.0
 10
97.13446720661916
 20
-153.7187825136537
 30
0.0
 10
97.13446720661916
 20
-153.7187825136537
 30
0.0
 10
95.0250352410007
 20
-153.7187825136537
 30
0.0
 10
95.0250352410007
 20
-153.7187825136537
 30
0.0
  0
ENDBLK
  5
303
330
300
100
AcDbEntity
  8
0
100
AcDbBlockEnd
  0
BLOCK
  5
308
330
306
100
AcDbEntity
  8
0
100
AcDbBlockBegin
  2
block 96
 70
     0
 71
     0
 10
0.0
 20
0.0
 30
0.0
  3
block 96
  1

  0
SPLINE
  5
30A
330
306
100
AcDbEntity
  8
Capa 1
 62
     7
420
 16777215
370
    15
100
AcDbSpline
210
0.0
220
0.0
230
1.0
 70
    11
 71
     3
 72
    20
 73
    16
 74
     0
 42
0.0000000001
 43
0.0000000001
 40
0.0
 40
0.0
 40
0.0
 40
0.0
 40
1.0
 40
1.0
 40
1.0
 40
2.0
 40
2.0
 40
2.0
 40
3.0
 40
3.0
 40
3.0
 40
4.0
 40
4.0
 40
4.0
 40
5.0
 40
5.0
 40
5.0
 40
5.0
 10
91.40355086690606
 20
-146.2236327759441
 30
0.0
 10
91.40355086690606
 20
-146.0720485745931
 30
0.0
 10
91.28090546763117
 20
-145.9487141562212
 30
0.0
 10
91.12863224718312
 20
-145.9487141562212
 30
0.0
 10
90.97704804583213
 20
-145.9487141562212
 30
0.0
 10
90.85388588223445
 20
-146.0720485745931
 30
0.0
 10
90.85388588223445
 20
-146.2236327759441
 30
0.0
 10
90.85388588223445
 20
-146.3755614868436
 30
0.0
 10
90.97704804583213
 20
-146.498551395667
 30
0.0
 10
91.12863224718312
 20
-146.498551395667
 30
0.0
 10
91.28090546763117
 20
-146.498551395667
 30
0.0
 10
91.40355086690606
 20
-146.3755614868436
 30
0.0
 10
91.40355086690606
 20
-146.2236327759441
 30
0.0
 10
91.40355086690606
 20
-146.2236327759441
 30
0.0
 10
91.40355086690606
 20
-146.2236327759441
 30
0.0
 10
91.40355086690606
 20
-146.2236327759441
 30
0.0
  0
ENDBLK
  5
309
330
306
100
AcDbEntity
  8
0
100
AcDbBlockEnd
  0
BLOCK
  5
30D
330
30B
100
AcDbEntity
  8
0
100
AcDbBlockBegin
  2
block 97
 70
     0
 71
     0
 10
0.0
 20
0.0
 30
0.0
  3
block 97
  1

  0
SPLINE
  5
30F
330
30B
100
AcDbEntity
  8
Capa 1
 62
     7
420
 16777215
370
    15
100
AcDbSpline
210
0.0
220
0.0
230
1.0
 70
    11
 71
     3
 72
    20
 73
    16
 74
     0
 42
0.0000000001
 43
0.0000000001
 40
0.0
 40
0.0
 40
0.0
 40
0.0
 40
1.0
 40
1.0
 40
1.0
 40
2.0
 40
2.0
 40
2.0
 40
3.0
 40
3.0
 40
3.0
 40
4.0
 40
4.0
 40
4.0
 40
5.0
 40
5.0
 40
5.0
 40
5.0
 10
95.40399574437818
 20
-146.2236327759441
 30
0.0
 10
95.40399574437818
 20
-146.0720485745931
 30
0.0
 10
95.28066132600622
 20
-145.9487141562212
 30
0.0
 10
95.12873261510671
 20
-145.9487141562212
 30
0.0
 10
94.97680390420719
 20
-145.9487141562212
 30
0.0
 10
94.85381399538377
 20
-146.0720485745931
 30
0.0
 10
94.85381399538377
 20
-146.2236327759441
 30
0.0
 10
94.85381399538377
 20
-146.3755614868436
 30
0.0
 10
94.97680390420719
 20
-146.498551395667
 30
0.0
 10
95.12873261510671
 20
-146.498551395667
 30
0.0
 10
95.28066132600622
 20
-146.498551395667
 30
0.0
 10
95.40399574437818
 20
-146.3755614868436
 30
0.0
 10
95.40399574437818
 20
-146.2236327759441
 30
0.0
 10
95.40399574437818
 20
-146.2236327759441
 30
0.0
 10
95.40399574437818
 20
-146.2236327759441
 30
0.0
 10
95.40399574437818
 20
-146.2236327759441
 30
0.0
  0
ENDBLK
  5
30E
330
30B
100
AcDbEntity
  8
0
100
AcDbBlockEnd
  0
BLOCK
  5
312
330
310
100
AcDbEntity
  8
0
100
AcDbBlockBegin
  2
block 98
 70
     0
 71
     0
 10
0.0
 20
0.0
 30
0.0
  3
block 98
  1

  0
SPLINE
  5
314
330
310
100
AcDbEntity
  8
Capa 1
 62
     7
420
 16777215
370
    15
100
AcDbSpline
210
0.0
220
0.0
230
1.0
 70
     8
 71
     3
 72
    38
 73
    34
 74
     0
 42
0.0000000001
 43
0.0000000001
 40
0.0
 40
0.0
 40
0.0
 40
0.0
 40
1.0
 40
1.0
 40
1.0
 40
2.0
 40
2.0
 40
2.0
 40
3.0
 40
3.0
 40
3.0
 40
4.0
 40
4.0
 40
4.0
 40
5.0
 40
5.0
 40
5.0
 40
6.0
 40
6.0
 40
6.0
 40
7.0
 40
7.0
 40
7.0
 40
8.0
 40
8.0
 40
8.0
 40
9.0
 40
9.0
 40
9.0
 40
10.0
 40
10.0
 40
10.0
 40
11.0
 40
11.0
 40
11.0
 40
11.0
 10
93.43202308862116
 20
-156.6953450129095
 30
0.0
 10
93.48438853999696
 20
-156.6936224651669
 30
0.0
 10
93.53675399137276
 20
-156.6918999174243
 30
0.0
 10
93.58877493320003
 20
-156.6867322741964
 30
0.0
 10
93.64010685593026
 20
-156.6815646309685
 30
0.0
 10
93.69143877866048
 20
-156.6729518922554
 30
0.0
 10
93.74208168229364
 20
-156.6615830771541
 30
0.0
 10
93.79169105728124
 20
-156.6505587716013
 30
0.0
 10
93.84130043226885
 20
-156.6374674087573
 30
0.0
 10
93.88953176906234
 20
-156.6212754599766
 30
0.0
 10
93.93741859630731
 20
-156.6054280207445
 30
0.0
 10
93.98461640445524
 20
-156.5871690146727
 30
0.0
 10
94.03009166486054
 20
-156.5664984417612
 30
0.0
 10
94.09072534540094
 20
-156.5392821874277
 30
0.0
 10
94.14929196865018
 20
-156.5079318185119
 30
0.0
 10
94.20510251551123
 20
-156.4727918445624
 30
0.0
 10
94.26056855282376
 20
-156.4383408897099
 30
0.0
 10
94.31327851374807
 20
-156.4004448393721
 30
0.0
 10
94.36357690783272
 20
-156.3591036935491
 30
0.0
 10
94.41318628282032
 20
-156.3184515668232
 30
0.0
 10
94.46003958141972
 20
-156.274354344612
 30
0.0
 10
94.50344778453386
 20
-156.2278455555611
 30
0.0
 10
94.56787107010804
 20
-156.1592881554046
 30
0.0
 10
94.62540416471171
 20
-156.0848740929232
 30
0.0
 10
94.67604706834489
 20
-156.005981406311
 30
0.0
 10
94.72531193378396
 20
-155.9291557769899
 30
0.0
 10
94.767342098704
 20
-155.8478515235381
 30
0.0
 10
94.80282658220207
 20
-155.763791193698
 30
0.0
 10
94.83727753705458
 20
-155.681797921149
 30
0.0
 10
94.8651828104851
 20
-155.5973930817604
 30
0.0
 10
94.8844753452025
 20
-155.5109211850806
 30
0.0
 10
94.90273435127432
 20
-155.4275498743376
 30
0.0
 10
94.91238061863302
 20
-155.3421115063034
 30
0.0
 10
94.92237139554024
 20
-155.2566731382692
 30
0.0
  0
ENDBLK
  5
313
330
310
100
AcDbEntity
  8
0
100
AcDbBlockEnd
  0
BLOCK
  5
317
330
315
100
AcDbEntity
  8
0
100
AcDbBlockBegin
  2
block 99
 70
     0
 71
     0
 10
0.0
 20
0.0
 30
0.0
  3
block 99
  1

  0
SPLINE
  5
319
330
315
100
AcDbEntity
  8
Capa 1
 62
     7
420
 16777215
370
    15
100
AcDbSpline
210
0.0
220
0.0
230
1.0
 70
     8
 71
     3
 72
    32
 73
    28
 74
     0
 42
0.0000000001
 43
0.0000000001
 40
0.0
 40
0.0
 40
0.0
 40
0.0
 40
1.0
 40
1.0
 40
1.0
 40
2.0
 40
2.0
 40
2.0
 40
3.0
 40
3.0
 40
3.0
 40
4.0
 40
4.0
 40
4.0
 40
5.0
 40
5.0
 40
5.0
 40
6.0
 40
6.0
 40
6.0
 40
7.0
 40
7.0
 40
7.0
 40
8.0
 40
8.0
 40
8.0
 40
9.0
 40
9.0
 40
9.0
 40
9.0
 10
91.33740503358926
 20
-155.2566731382692
 30
0.0
 10
91.34498424365681
 20
-155.3276421052653
 30
0.0
 10
91.35256345372436
 20
-155.3993000913585
 30
0.0
 10
91.36599932611684
 20
-155.4695800392576
 30
0.0
 10
91.37943519850931
 20
-155.5381374394141
 30
0.0
 10
91.3987277332267
 20
-155.6060058204735
 30
0.0
 10
91.42180987297789
 20
-155.6721516537903
 30
0.0
 10
91.44454750318053
 20
-155.736919448913
 30
0.0
 10
91.47107473841696
 20
-155.8003092058416
 30
0.0
 10
91.50139157868716
 20
-155.861631905479
 30
0.0
 10
91.5461778199954
 20
-155.9512043880955
 30
0.0
 10
91.59957680001678
 20
-156.0366427561297
 30
0.0
 10
91.6605549901057
 20
-156.1158799522905
 30
0.0
 10
91.71946612290347
 20
-156.192361072063
 30
0.0
 10
91.78561195622027
 20
-156.2633300390592
 30
0.0
 10
91.85830347095904
 20
-156.3270643055363
 30
0.0
 10
91.92789439976109
 20
-156.3887315147223
 30
0.0
 10
92.00368650043659
 20
-156.4438530424863
 30
0.0
 10
92.08430173479142
 20
-156.4910508506342
 30
0.0
 10
92.16147187366103
 20
-156.536870620588
 30
0.0
 10
92.24277612711292
 20
-156.5751111804743
 30
0.0
 10
92.32718096650154
 20
-156.60646154939
 30
0.0
 10
92.40882972950196
 20
-156.6367783896603
 30
0.0
 10
92.49289005934206
 20
-156.6598605294114
 30
0.0
 10
92.57798391782774
 20
-156.6736409113524
 30
0.0
 10
92.6603216999252
 20
-156.6867322741964
 30
0.0
 10
92.74403752021678
 20
-156.6912108983272
 30
0.0
 10
92.82775334050834
 20
-156.6953450129095
 30
0.0
  0
ENDBLK
  5
318
330
315
100
AcDbEntity
  8
0
100
AcDbBlockEnd
  0
BLOCK
  5
31C
330
31A
100
AcDbEntity
  8
0
100
AcDbBlockBegin
  2
block 100
 70
     0
 71
     0
 10
0.0
 20
0.0
 30
0.0
  3
block 100
  1

  0
POLYLINE
  5
31E
330
31A
100
AcDbEntity
  8
Capa 1
 62
     7
420
 16777215
370
    15
100
AcDb2dPolyline
 66
     1
 10
0.0
 20
0.0
 30
0.0
  0
VERTEX
  5
31F
330
31E
100
AcDbEntity
  8
Capa 1
 62
     7
420
 16777215
370
    15
100
AcDbVertex
100
AcDb2dVertex
 10
92.82224118773195
 20
-156.6953450129095
 30
0.0
  0
VERTEX
  5
320
330
31E
100
AcDbEntity
  8
Capa 1
 62
     7
420
 16777215
370
    15
100
AcDbVertex
100
AcDb2dVertex
 10
93.43719073184904
 20
-156.6953450129095
 30
0.0
  0
SEQEND
  5
321
330
31E
100
AcDbEntity
  8
Capa 1
370
    15
  0
ENDBLK
  5
31D
330
31A
100
AcDbEntity
  8
0
100
AcDbBlockEnd
  0
BLOCK
  5
324
330
322
100
AcDbEntity
  8
0
100
AcDbBlockBegin
  2
block 101
 70
     0
 71
     0
 10
0.0
 20
0.0
 30
0.0
  3
block 101
  1

  0
POLYLINE
  5
326
330
322
100
AcDbEntity
  8
Capa 1
 62
     7
420
 16777215
370
    15
100
AcDb2dPolyline
 66
     1
 10
0.0
 20
0.0
 30
0.0
  0
VERTEX
  5
327
330
326
100
AcDbEntity
  8
Capa 1
 62
     7
420
 16777215
370
    15
100
AcDbVertex
100
AcDb2dVertex
 10
90.88575301547301
 20
-148.428493886504
 30
0.0
  0
VERTEX
  5
328
330
326
100
AcDbEntity
  8
Capa 1
 62
     7
420
 16777215
370
    15
100
AcDbVertex
100
AcDb2dVertex
 10
91.33637150494368
 20
-155.2618407814971
 30
0.0
  0
SEQEND
  5
329
330
326
100
AcDbEntity
  8
Capa 1
370
    15
  0
ENDBLK
  5
325
330
322
100
AcDbEntity
  8
0
100
AcDbBlockEnd
  0
BLOCK
  5
32C
330
32A
100
AcDbEntity
  8
0
100
AcDbBlockBegin
  2
block 102
 70
     0
 71
     0
 10
0.0
 20
0.0
 30
0.0
  3
block 102
  1

  0
POLYLINE
  5
32E
330
32A
100
AcDbEntity
  8
Capa 1
 62
     7
420
 16777215
370
    15
100
AcDb2dPolyline
 66
     1
 10
0.0
 20
0.0
 30
0.0
  0
VERTEX
  5
32F
330
32E
100
AcDbEntity
  8
Capa 1
 62
     7
420
 16777215
370
    15
100
AcDbVertex
100
AcDb2dVertex
 10
94.92374943373434
 20
-155.2490939282016
 30
0.0
  0
VERTEX
  5
330
330
32E
100
AcDbEntity
  8
Capa 1
 62
     7
420
 16777215
370
    15
100
AcDbVertex
100
AcDb2dVertex
 10
95.37781301869028
 20
-148.3702717728033
 30
0.0
  0
SEQEND
  5
331
330
32E
100
AcDbEntity
  8
Capa 1
370
    15
  0
ENDBLK
  5
32D
330
32A
100
AcDbEntity
  8
0
100
AcDbBlockEnd
  0
BLOCK
  5
334
330
332
100
AcDbEntity
  8
0
100
AcDbBlockBegin
  2
block 103
 70
     0
 71
     0
 10
0.0
 20
0.0
 30
0.0
  3
block 103
  1

  0
POLYLINE
  5
336
330
332
100
AcDbEntity
  8
Capa 1
 62
     7
420
 16777215
370
    15
100
AcDb2dPolyline
 66
     1
 10
0.0
 20
0.0
 30
0.0
  0
VERTEX
  5
337
330
336
100
AcDbEntity
  8
Capa 1
 62
     7
420
 16777215
370
    15
100
AcDbVertex
100
AcDb2dVertex
 10
94.92306041463729
 20
-155.2618407814971
 30
0.0
  0
VERTEX
  5
338
330
336
100
AcDbEntity
  8
Capa 1
 62
     7
420
 16777215
370
    15
100
AcDbVertex
100
AcDb2dVertex
 10
94.92374943373434
 20
-155.2490939282016
 30
0.0
  0
SEQEND
  5
339
330
336
100
AcDbEntity
  8
Capa 1
370
    15
  0
ENDBLK
  5
335
330
332
100
AcDbEntity
  8
0
100
AcDbBlockEnd
  0
BLOCK
  5
33C
330
33A
100
AcDbEntity
  8
0
100
AcDbBlockBegin
  2
block 104
 70
     0
 71
     0
 10
0.0
 20
0.0
 30
0.0
  3
block 104
  1

  0
SPLINE
  5
33E
330
33A
100
AcDbEntity
  8
Capa 1
 62
     7
420
 16777215
370
    15
100
AcDbSpline
210
0.0
220
0.0
230
1.0
 70
     8
 71
     3
 72
    14
 73
    10
 74
     0
 42
0.0000000001
 43
0.0000000001
 40
0.0
 40
0.0
 40
0.0
 40
0.0
 40
1.0
 40
1.0
 40
1.0
 40
2.0
 40
2.0
 40
2.0
 40
3.0
 40
3.0
 40
3.0
 40
3.0
 10
95.37746850914175
 20
-148.3723388300944
 30
0.0
 10
95.45946178169069
 20
-147.1307264172104
 30
0.0
 10
94.51929522376601
 20
-146.0575791735551
 30
0.0
 10
93.27768281088197
 20
-145.9755859010061
 30
0.0
 10
92.03641490754646
 20
-145.8935926284572
 30
0.0
 10
90.96326766389113
 20
-146.8337591863819
 30
0.0
 10
90.88127439134219
 20
-148.0750270897174
 30
0.0
 10
90.87352292650037
 20
-148.1928493553129
 30
0.0
 10
90.87507321946873
 20
-148.3106716209084
 30
0.0
 10
90.88575301547301
 20
-148.4281493769555
 30
0.0
  0
ENDBLK
  5
33D
330
33A
100
AcDbEntity
  8
0
100
AcDbBlockEnd
  0
BLOCK
  5
341
330
33F
100
AcDbEntity
  8
0
100
AcDbBlockBegin
  2
block 105
 70
     0
 71
     0
 10
0.0
 20
0.0
 30
0.0
  3
block 105
  1

  0
POLYLINE
  5
343
330
33F
100
AcDbEntity
  8
Capa 1
 62
     7
420
 16777215
370
    15
100
AcDb2dPolyline
 66
     1
 10
0.0
 20
0.0
 30
0.0
  0
VERTEX
  5
344
330
343
100
AcDbEntity
  8
Capa 1
 62
     7
420
 16777215
370
    15
100
AcDbVertex
100
AcDb2dVertex
 10
94.92340492418582
 20
-155.2566731382692
 30
0.0
  0
VERTEX
  5
345
330
343
100
AcDbEntity
  8
Capa 1
 62
     7
420
 16777215
370
    15
100
AcDbVertex
100
AcDb2dVertex
 10
94.9203043382491
 20
-155.2563286287206
 30
0.0
  0
SEQEND
  5
346
330
343
100
AcDbEntity
  8
Capa 1
370
    15
  0
ENDBLK
  5
342
330
33F
100
AcDbEntity
  8
0
100
AcDbBlockEnd
  0
BLOCK
  5
349
330
347
100
AcDbEntity
  8
0
100
AcDbBlockBegin
  2
block 106
 70
     0
 71
     0
 10
0.0
 20
0.0
 30
0.0
  3
block 106
  1

  0
POLYLINE
  5
34B
330
347
100
AcDbEntity
  8
Capa 1
 62
     7
420
 16777215
370
    15
100
AcDb2dPolyline
 66
     1
 10
0.0
 20
0.0
 30
0.0
  0
VERTEX
  5
34C
330
34B
100
AcDbEntity
  8
Capa 1
 62
     7
420
 16777215
370
    15
100
AcDbVertex
100
AcDb2dVertex
 10
91.33602699539516
 20
-155.2566731382692
 30
0.0
  0
VERTEX
  5
34D
330
34B
100
AcDbEntity
  8
Capa 1
 62
     7
420
 16777215
370
    15
100
AcDbVertex
100
AcDb2dVertex
 10
91.3391275813319
 20
-155.2563286287206
 30
0.0
  0
SEQEND
  5
34E
330
34B
100
AcDbEntity
  8
Capa 1
370
    15
  0
ENDBLK
  5
34A
330
347
100
AcDbEntity
  8
0
100
AcDbBlockEnd
  0
BLOCK
  5
351
330
34F
100
AcDbEntity
  8
0
100
AcDbBlockBegin
  2
block 107
 70
     0
 71
     0
 10
0.0
 20
0.0
 30
0.0
  3
block 107
  1

  0
SPLINE
  5
353
330
34F
100
AcDbEntity
  8
Capa 1
 62
     7
420
 16777215
370
    15
100
AcDbSpline
210
0.0
220
0.0
230
1.0
 70
     8
 71
     3
 72
    11
 73
     7
 74
     0
 42
0.0000000001
 43
0.0000000001
 40
0.0
 40
0.0
 40
0.0
 40
0.0
 40
1.0
 40
1.0
 40
1.0
 40
2.0
 40
2.0
 40
2.0
 40
2.0
 10
130.7131238822523
 20
-146.4386067342237
 30
0.0
 10
130.7131238822523
 20
-146.3831406969112
 30
0.0
 10
130.668337640944
 20
-146.3383544556029
 30
0.0
 10
130.6128716036315
 20
-146.3383544556029
 30
0.0
 10
130.6121825845345
 20
-146.3383544556029
 30
0.0
 10
130.6108045463403
 20
-146.3386989651515
 30
0.0
 10
130.6101155272433
 20
-146.3386989651515
 30
0.0
  0
ENDBLK
  5
352
330
34F
100
AcDbEntity
  8
0
100
AcDbBlockEnd
  0
BLOCK
  5
356
330
354
100
AcDbEntity
  8
0
100
AcDbBlockBegin
  2
block 108
 70
     0
 71
     0
 10
0.0
 20
0.0
 30
0.0
  3
block 108
  1

  0
POLYLINE
  5
358
330
354
100
AcDbEntity
  8
Capa 1
 62
     7
420
 16777215
370
    15
100
AcDb2dPolyline
 66
     1
 10
0.0
 20
0.0
 30
0.0
  0
VERTEX
  5
359
330
358
100
AcDbEntity
  8
Capa 1
 62
     7
420
 16777215
370
    15
100
AcDbVertex
100
AcDb2dVertex
 10
130.3131482964148
 20
-150.834893082951
 30
0.0
  0
VERTEX
  5
35A
330
358
100
AcDbEntity
  8
Capa 1
 62
     7
420
 16777215
370
    15
100
AcDbVertex
100
AcDb2dVertex
 10
127.813042502769
 20
-150.7563449058873
 30
0.0
  0
SEQEND
  5
35B
330
358
100
AcDbEntity
  8
Capa 1
370
    15
  0
ENDBLK
  5
357
330
354
100
AcDbEntity
  8
0
100
AcDbBlockEnd
  0
BLOCK
  5
35E
330
35C
100
AcDbEntity
  8
0
100
AcDbBlockBegin
  2
block 109
 70
     0
 71
     0
 10
0.0
 20
0.0
 30
0.0
  3
block 109
  1

  0
POLYLINE
  5
360
330
35C
100
AcDbEntity
  8
Capa 1
 62
     7
420
 16777215
370
    15
100
AcDb2dPolyline
 66
     1
 10
0.0
 20
0.0
 30
0.0
  0
VERTEX
  5
361
330
360
100
AcDbEntity
  8
Capa 1
 62
     7
420
 16777215
370
    15
100
AcDbVertex
100
AcDb2dVertex
 10
129.7323051976016
 20
-146.3662597290334
 30
0.0
  0
VERTEX
  5
362
330
360
100
AcDbEntity
  8
Capa 1
 62
     7
420
 16777215
370
    15
100
AcDbVertex
100
AcDb2dVertex
 10
130.6101155272433
 20
-146.3386989651515
 30
0.0
  0
SEQEND
  5
363
330
360
100
AcDbEntity
  8
Capa 1
370
    15
  0
ENDBLK
  5
35F
330
35C
100
AcDbEntity
  8
0
100
AcDbBlockEnd
  0
BLOCK
  5
366
330
364
100
AcDbEntity
  8
0
100
AcDbBlockBegin
  2
block 110
 70
     0
 71
     0
 10
0.0
 20
0.0
 30
0.0
  3
block 110
  1

  0
POLYLINE
  5
368
330
364
100
AcDbEntity
  8
Capa 1
 62
     7
420
 16777215
370
    15
100
AcDb2dPolyline
 66
     1
 10
0.0
 20
0.0
 30
0.0
  0
VERTEX
  5
369
330
368
100
AcDbEntity
  8
Capa 1
 62
     7
420
 16777215
370
    15
100
AcDbVertex
100
AcDb2dVertex
 10
128.5365125546714
 20
-146.4034667602741
 30
0.0
  0
VERTEX
  5
36A
330
368
100
AcDbEntity
  8
Capa 1
 62
     7
420
 16777215
370
    15
100
AcDbVertex
100
AcDb2dVertex
 10
128.7401176978497
 20
-146.3972655884007
 30
0.0
  0
SEQEND
  5
36B
330
368
100
AcDbEntity
  8
Capa 1
370
    15
  0
ENDBLK
  5
367
330
364
100
AcDbEntity
  8
0
100
AcDbBlockEnd
  0
BLOCK
  5
36E
330
36C
100
AcDbEntity
  8
0
100
AcDbBlockBegin
  2
block 111
 70
     0
 71
     0
 10
0.0
 20
0.0
 30
0.0
  3
block 111
  1

  0
POLYLINE
  5
370
330
36C
100
AcDbEntity
  8
Capa 1
 62
     7
420
 16777215
370
    15
100
AcDb2dPolyline
 66
     1
 10
0.0
 20
0.0
 30
0.0
  0
VERTEX
  5
371
330
370
100
AcDbEntity
  8
Capa 1
 62
     7
420
 16777215
370
    15
100
AcDbVertex
100
AcDb2dVertex
 10
130.7131238822523
 20
-156.9506265883665
 30
0.0
  0
VERTEX
  5
372
330
370
100
AcDbEntity
  8
Capa 1
 62
     7
420
 16777215
370
    15
100
AcDbVertex
100
AcDb2dVertex
 10
130.7110568249611
 20
-156.9826659763793
 30
0.0
  0
SEQEND
  5
373
330
370
100
AcDbEntity
  8
Capa 1
370
    15
  0
ENDBLK
  5
36F
330
36C
100
AcDbEntity
  8
0
100
AcDbBlockEnd
  0
BLOCK
  5
376
330
374
100
AcDbEntity
  8
0
100
AcDbBlockBegin
  2
block 112
 70
     0
 71
     0
 10
0.0
 20
0.0
 30
0.0
  3
block 112
  1

  0
SPLINE
  5
378
330
374
100
AcDbEntity
  8
Capa 1
 62
     7
420
 16777215
370
    15
100
AcDbSpline
210
0.0
220
0.0
230
1.0
 70
    24
 71
     3
 72
    53
 73
    49
 74
     0
 42
0.0000000001
 43
0.0000000001
 40
0.0
 40
0.0
 40
0.0
 40
0.0
 40
1.0
 40
1.0
 40
1.0
 40
2.0
 40
2.0
 40
2.0
 40
3.0
 40
3.0
 40
3.0
 40
4.0
 40
4.0
 40
4.0
 40
5.0
 40
5.0
 40
5.0
 40
6.0
 40
6.0
 40
6.0
 40
7.0
 40
7.0
 40
7.0
 40
8.0
 40
8.0
 40
8.0
 40
9.0
 40
9.0
 40
9.0
 40
10.0
 40
10.0
 40
10.0
 40
11.0
 40
11.0
 40
11.0
 40
12.0
 40
12.0
 40
12.0
 40
13.0
 40
13.0
 40
13.0
 40
14.0
 40
14.0
 40
14.0
 40
15.0
 40
15.0
 40
15.0
 40
16.0
 40
16.0
 40
16.0
 40
16.0
 10
130.7131238822523
 20
-146.4386067342237
 30
0.0
 10
130.7131238822523
 20
-146.4406737915148
 30
0.0
 10
130.7131238822523
 20
-146.442740848806
 30
0.0
 10
130.7131238822523
 20
-146.4496310397765
 30
0.0
 10
130.7131238822523
 20
-146.4561767211985
 30
0.0
 10
130.7131238822523
 20
-146.4675455362998
 30
0.0
 10
130.7131238822523
 20
-146.4823594468864
 30
0.0
 10
130.7131238822523
 20
-146.4975178670215
 30
0.0
 10
130.7131238822523
 20
-146.5157768730933
 30
0.0
 10
130.7131238822523
 20
-146.5385145032959
 30
0.0
 10
130.7131238822523
 20
-146.5605631144015
 30
0.0
 10
130.7131238822523
 20
-146.5867458400894
 30
0.0
 10
130.7131238822523
 20
-146.6163736612626
 30
0.0
 10
130.7131238822523
 20
-146.6456569728872
 30
0.0
 10
130.7131238822523
 20
-146.6787298895456
 30
0.0
 10
130.7131238822523
 20
-146.7149033921407
 30
0.0
 10
130.7131238822523
 20
-146.7514214042844
 30
0.0
 10
130.7131238822523
 20
-146.7913845119133
 30
0.0
 10
130.7131238822523
 20
-146.8341036959304
 30
0.0
 10
130.7131238822523
 20
-146.8761338608504
 30
0.0
 10
130.7131238822523
 20
-146.9209201021587
 30
0.0
 10
130.7131238822523
 20
-146.9688069294036
 30
0.0
 10
130.7131238822523
 20
-147.0166937566486
 30
0.0
 10
130.7131238822523
 20
-147.0669921507333
 30
0.0
 10
130.7131238822523
 20
-147.1200466212061
 30
0.0
 10
130.7131238822523
 20
-147.1731010916789
 30
0.0
 10
130.7131238822523
 20
-147.2285671289915
 30
0.0
 10
130.7131238822523
 20
-147.2861002235952
 30
0.0
 10
130.7131238822523
 20
-147.3439778277474
 30
0.0
 10
130.7131238822523
 20
-147.4039224891907
 30
0.0
 10
130.7131238822523
 20
-147.4659342079252
 30
0.0
 10
130.7131238822523
 20
-147.5293239648538
 30
0.0
 10
130.7131238822523
 20
-147.5947807790735
 30
0.0
 10
130.7131238822523
 20
-147.6616156314874
 30
0.0
 10
130.7131238822523
 20
-147.7284504839012
 30
0.0
 10
130.7131238822523
 20
-147.7970078840577
 30
0.0
 10
130.7131238822523
 20
-147.8669433224083
 30
0.0
 10
130.7131238822523
 20
-147.9365342512103
 30
0.0
 10
130.7131238822523
 20
-148.007847727755
 30
0.0
 10
130.7131238822523
 20
-148.0798502233967
 30
0.0
 10
130.7131238822523
 20
-148.152197228587
 30
0.0
 10
130.7131238822523
 20
-148.2248887433257
 30
0.0
 10
130.7131238822523
 20
-148.2982692771616
 30
0.0
 10
130.7131238822523
 20
-148.3706162823518
 30
0.0
 10
130.7131238822523
 20
-148.4429632875421
 30
0.0
 10
130.7131238822523
 20
-148.5153102927323
 30
0.0
 10
130.7131238822523
 20
-148.5880018074711
 30
0.0
 10
130.7131238822523
 20
-148.6606933222098
 30
0.0
 10
130.7131238822523
 20
-148.7330403274001
 30
0.0
  0
ENDBLK
  5
377
330
374
100
AcDbEntity
  8
0
100
AcDbBlockEnd
  0
BLOCK
  5
37B
330
379
100
AcDbEntity
  8
0
100
AcDbBlockBegin
  2
block 113
 70
     0
 71
     0
 10
0.0
 20
0.0
 30
0.0
  3
block 113
  1

  0
POLYLINE
  5
37D
330
379
100
AcDbEntity
  8
Capa 1
 62
     7
420
 16777215
370
    15
100
AcDb2dPolyline
 66
     1
 10
0.0
 20
0.0
 30
0.0
  0
VERTEX
  5
37E
330
37D
100
AcDbEntity
  8
Capa 1
 62
     7
420
 16777215
370
    15
100
AcDbVertex
100
AcDb2dVertex
 10
127.813042502769
 20
-148.3912868552633
 30
0.0
  0
VERTEX
  5
37F
330
37D
100
AcDbEntity
  8
Capa 1
 62
     7
420
 16777215
370
    15
100
AcDbVertex
100
AcDb2dVertex
 10
127.8774657883431
 20
-148.2135199282244
 30
0.0
  0
VERTEX
  5
380
330
37D
100
AcDbEntity
  8
Capa 1
 62
     7
420
 16777215
370
    15
100
AcDbVertex
100
AcDb2dVertex
 10
127.9415445643688
 20
-148.0385090775737
 30
0.0
  0
VERTEX
  5
381
330
37D
100
AcDbEntity
  8
Capa 1
 62
     7
420
 16777215
370
    15
100
AcDbVertex
100
AcDb2dVertex
 10
128.0039007926518
 20
-147.8669433224083
 30
0.0
  0
VERTEX
  5
382
330
37D
100
AcDbEntity
  8
Capa 1
 62
     7
420
 16777215
370
    15
100
AcDbVertex
100
AcDb2dVertex
 10
128.0648789827407
 20
-147.7002007009222
 30
0.0
  0
VERTEX
  5
383
330
37D
100
AcDbEntity
  8
Capa 1
 62
     7
420
 16777215
370
    15
100
AcDbVertex
100
AcDb2dVertex
 10
128.1231010964414
 20
-147.539314741761
 30
0.0
  0
VERTEX
  5
384
330
37D
100
AcDbEntity
  8
Capa 1
 62
     7
420
 16777215
370
    15
100
AcDbVertex
100
AcDb2dVertex
 10
128.179256152851
 20
-147.3853189735703
 30
0.0
  0
VERTEX
  5
385
330
37D
100
AcDbEntity
  8
Capa 1
 62
     7
420
 16777215
370
    15
100
AcDbVertex
100
AcDb2dVertex
 10
128.2323106233239
 20
-147.2399359440928
 30
0.0
  0
VERTEX
  5
386
330
37D
100
AcDbEntity
  8
Capa 1
 62
     7
420
 16777215
370
    15
100
AcDbVertex
100
AcDb2dVertex
 10
128.2819199983115
 20
-147.1028211437799
 30
0.0
  0
VERTEX
  5
387
330
37D
100
AcDbEntity
  8
Capa 1
 62
     7
420
 16777215
370
    15
100
AcDbVertex
100
AcDb2dVertex
 10
128.3280842778138
 20
-146.9763861394712
 30
0.0
  0
VERTEX
  5
388
330
37D
100
AcDbEntity
  8
Capa 1
 62
     7
420
 16777215
370
    15
100
AcDbVertex
100
AcDb2dVertex
 10
128.3701144427339
 20
-146.8606309311668
 30
0.0
  0
VERTEX
  5
389
330
37D
100
AcDbEntity
  8
Capa 1
 62
     7
420
 16777215
370
    15
100
AcDbVertex
100
AcDb2dVertex
 10
128.4080104930716
 20
-146.7565890475123
 30
0.0
  0
VERTEX
  5
38A
330
37D
100
AcDbEntity
  8
Capa 1
 62
     7
420
 16777215
370
    15
100
AcDbVertex
100
AcDb2dVertex
 10
128.4414279192785
 20
-146.6649495076046
 30
0.0
  0
VERTEX
  5
38B
330
37D
100
AcDbEntity
  8
Capa 1
 62
     7
420
 16777215
370
    15
100
AcDbVertex
100
AcDb2dVertex
 10
128.4700222118061
 20
-146.5860568209924
 30
0.0
  0
VERTEX
  5
38C
330
37D
100
AcDbEntity
  8
Capa 1
 62
     7
420
 16777215
370
    15
100
AcDbVertex
100
AcDb2dVertex
 10
128.4937933706543
 20
-146.5212890258697
 30
0.0
  0
VERTEX
  5
38D
330
37D
100
AcDbEntity
  8
Capa 1
 62
     7
420
 16777215
370
    15
100
AcDbVertex
100
AcDb2dVertex
 10
128.5123968862747
 20
-146.4699571031394
 30
0.0
  0
VERTEX
  5
38E
330
37D
100
AcDbEntity
  8
Capa 1
 62
     7
420
 16777215
370
    15
100
AcDbVertex
100
AcDb2dVertex
 10
128.5258327586671
 20
-146.4330945814473
 30
0.0
  0
VERTEX
  5
38F
330
37D
100
AcDbEntity
  8
Capa 1
 62
     7
420
 16777215
370
    15
100
AcDbVertex
100
AcDb2dVertex
 10
128.5337564782832
 20
-146.4110459703417
 30
0.0
  0
VERTEX
  5
390
330
37D
100
AcDbEntity
  8
Capa 1
 62
     7
420
 16777215
370
    15
100
AcDbVertex
100
AcDb2dVertex
 10
128.5365125546714
 20
-146.4034667602741
 30
0.0
  0
SEQEND
  5
391
330
37D
100
AcDbEntity
  8
Capa 1
370
    15
  0
ENDBLK
  5
37C
330
379
100
AcDbEntity
  8
0
100
AcDbBlockEnd
  0
BLOCK
  5
394
330
392
100
AcDbEntity
  8
0
100
AcDbBlockBegin
  2
block 114
 70
     0
 71
     0
 10
0.0
 20
0.0
 30
0.0
  3
block 114
  1

  0
POLYLINE
  5
396
330
392
100
AcDbEntity
  8
Capa 1
 62
     7
420
 16777215
370
    15
100
AcDb2dPolyline
 66
     1
 10
0.0
 20
0.0
 30
0.0
  0
VERTEX
  5
397
330
396
100
AcDbEntity
  8
Capa 1
 62
     7
420
 16777215
370
    15
100
AcDbVertex
100
AcDb2dVertex
 10
127.813042502769
 20
-150.7563449058873
 30
0.0
  0
VERTEX
  5
398
330
396
100
AcDbEntity
  8
Capa 1
 62
     7
420
 16777215
370
    15
100
AcDbVertex
100
AcDb2dVertex
 10
127.813042502769
 20
-148.3912868552633
 30
0.0
  0
SEQEND
  5
399
330
396
100
AcDbEntity
  8
Capa 1
370
    15
  0
ENDBLK
  5
395
330
392
100
AcDbEntity
  8
0
100
AcDbBlockEnd
  0
BLOCK
  5
39C
330
39A
100
AcDbEntity
  8
0
100
AcDbBlockBegin
  2
block 115
 70
     0
 71
     0
 10
0.0
 20
0.0
 30
0.0
  3
block 115
  1

  0
SPLINE
  5
39E
330
39A
100
AcDbEntity
  8
Capa 1
 62
     7
420
 16777215
370
    15
100
AcDbSpline
210
0.0
220
0.0
230
1.0
 70
     8
 71
     3
 72
    32
 73
    28
 74
     0
 42
0.0000000001
 43
0.0000000001
 40
0.0
 40
0.0
 40
0.0
 40
0.0
 40
1.0
 40
1.0
 40
1.0
 40
2.0
 40
2.0
 40
2.0
 40
3.0
 40
3.0
 40
3.0
 40
4.0
 40
4.0
 40
4.0
 40
5.0
 40
5.0
 40
5.0
 40
6.0
 40
6.0
 40
6.0
 40
7.0
 40
7.0
 40
7.0
 40
8.0
 40
8.0
 40
8.0
 40
9.0
 40
9.0
 40
9.0
 40
9.0
 10
129.7323051976016
 20
-146.3662597290334
 30
0.0
 10
129.7274820639223
 20
-146.3676377672275
 30
0.0
 10
129.7230034397915
 20
-146.3686712958731
 30
0.0
 10
129.7081895292049
 20
-146.3724609009069
 30
0.0
 10
129.6923420899728
 20
-146.3759059963921
 30
0.0
 10
129.6661593642849
 20
-146.3824516778141
 30
0.0
 10
129.6330864476265
 20
-146.3896863783332
 30
0.0
 10
129.599324511871
 20
-146.3965765693036
 30
0.0
 10
129.5586723851451
 20
-146.4048447984682
 30
0.0
 10
129.5125081056427
 20
-146.4120794989873
 30
0.0
 10
129.4656548070433
 20
-146.4193141995063
 30
0.0
 10
129.4132893556675
 20
-146.4265489000253
 30
0.0
 10
129.357823318355
 20
-146.4313720337047
 30
0.0
 10
129.3030463001395
 20
-146.4365396769325
 30
0.0
 10
129.2462022246329
 20
-146.4392957533207
 30
0.0
 10
129.1900471682233
 20
-146.4399847724178
 30
0.0
 10
129.1349256404593
 20
-146.4406737915148
 30
0.0
 10
129.0811821508894
 20
-146.4392957533207
 30
0.0
 10
129.0308837568048
 20
-146.4358506578355
 30
0.0
 10
128.9805853627201
 20
-146.4330945814473
 30
0.0
 10
128.9337320641207
 20
-146.4282714477679
 30
0.0
 10
128.8937689564918
 20
-146.4234483140886
 30
0.0
 10
128.8531168297659
 20
-146.4182806708607
 30
0.0
 10
128.8193548940104
 20
-146.4131130276328
 30
0.0
 10
128.7917941301284
 20
-146.4082898939535
 30
0.0
 10
128.7638888566979
 20
-146.4034667602741
 30
0.0
 10
128.7428737742379
 20
-146.3993326456918
 30
0.0
 10
128.7387396596556
 20
-146.3986436265948
 30
0.0
  0
ENDBLK
  5
39D
330
39A
100
AcDbEntity
  8
0
100
AcDbBlockEnd
  0
BLOCK
  5
3A1
330
39F
100
AcDbEntity
  8
0
100
AcDbBlockBegin
  2
block 116
 70
     0
 71
     0
 10
0.0
 20
0.0
 30
0.0
  3
block 116
  1

  0
POLYLINE
  5
3A3
330
39F
100
AcDbEntity
  8
Capa 1
 62
     7
420
 16777215
370
    15
100
AcDb2dPolyline
 66
     1
 10
0.0
 20
0.0
 30
0.0
  0
VERTEX
  5
3A4
330
3A3
100
AcDbEntity
  8
Capa 1
 62
     7
420
 16777215
370
    15
100
AcDbVertex
100
AcDb2dVertex
 10
130.7131238822523
 20
-148.7330403274001
 30
0.0
  0
VERTEX
  5
3A5
330
3A3
100
AcDbEntity
  8
Capa 1
 62
     7
420
 16777215
370
    15
100
AcDbVertex
100
AcDb2dVertex
 10
130.7131238822523
 20
-155.6177191451233
 30
0.0
  0
SEQEND
  5
3A6
330
3A3
100
AcDbEntity
  8
Capa 1
370
    15
  0
ENDBLK
  5
3A2
330
39F
100
AcDbEntity
  8
0
100
AcDbBlockEnd
  0
BLOCK
  5
3A9
330
3A7
100
AcDbEntity
  8
0
100
AcDbBlockBegin
  2
block 117
 70
     0
 71
     0
 10
0.0
 20
0.0
 30
0.0
  3
block 117
  1

  0
POLYLINE
  5
3AB
330
3A7
100
AcDbEntity
  8
Capa 1
 62
     7
420
 16777215
370
    15
100
AcDb2dPolyline
 66
     1
 10
0.0
 20
0.0
 30
0.0
  0
VERTEX
  5
3AC
330
3AB
100
AcDbEntity
  8
Capa 1
 62
     7
420
 16777215
370
    15
100
AcDbVertex
100
AcDb2dVertex
 10
130.6101155272433
 20
-155.6239203169968
 30
0.0
  0
VERTEX
  5
3AD
330
3AB
100
AcDbEntity
  8
Capa 1
 62
     7
420
 16777215
370
    15
100
AcDbVertex
100
AcDb2dVertex
 10
130.6128716036315
 20
-155.6239203169968
 30
0.0
  0
SEQEND
  5
3AE
330
3AB
100
AcDbEntity
  8
Capa 1
370
    15
  0
ENDBLK
  5
3AA
330
3A7
100
AcDbEntity
  8
0
100
AcDbBlockEnd
  0
BLOCK
  5
3B1
330
3AF
100
AcDbEntity
  8
0
100
AcDbBlockBegin
  2
block 118
 70
     0
 71
     0
 10
0.0
 20
0.0
 30
0.0
  3
block 118
  1

  0
POLYLINE
  5
3B3
330
3AF
100
AcDbEntity
  8
Capa 1
 62
     7
420
 16777215
370
    15
100
AcDb2dPolyline
 66
     1
 10
0.0
 20
0.0
 30
0.0
  0
VERTEX
  5
3B4
330
3B3
100
AcDbEntity
  8
Capa 1
 62
     7
420
 16777215
370
    15
100
AcDbVertex
100
AcDb2dVertex
 10
130.7093342772185
 20
-155.6187526737689
 30
0.0
  0
VERTEX
  5
3B5
330
3B3
100
AcDbEntity
  8
Capa 1
 62
     7
420
 16777215
370
    15
100
AcDbVertex
100
AcDb2dVertex
 10
130.7131238822523
 20
-155.6177191451233
 30
0.0
  0
SEQEND
  5
3B6
330
3B3
100
AcDbEntity
  8
Capa 1
370
    15
  0
ENDBLK
  5
3B2
330
3AF
100
AcDbEntity
  8
0
100
AcDbBlockEnd
  0
BLOCK
  5
3B9
330
3B7
100
AcDbEntity
  8
0
100
AcDbBlockBegin
  2
block 119
 70
     0
 71
     0
 10
0.0
 20
0.0
 30
0.0
  3
block 119
  1

  0
POLYLINE
  5
3BB
330
3B7
100
AcDbEntity
  8
Capa 1
 62
     7
420
 16777215
370
    15
100
AcDb2dPolyline
 66
     1
 10
0.0
 20
0.0
 30
0.0
  0
VERTEX
  5
3BC
330
3BB
100
AcDbEntity
  8
Capa 1
 62
     7
420
 16777215
370
    15
100
AcDbVertex
100
AcDb2dVertex
 10
130.3131482964148
 20
-155.5446831208361
 30
0.0
  0
VERTEX
  5
3BD
330
3BB
100
AcDbEntity
  8
Capa 1
 62
     7
420
 16777215
370
    15
100
AcDbVertex
100
AcDb2dVertex
 10
130.6101155272433
 20
-155.6239203169968
 30
0.0
  0
SEQEND
  5
3BE
330
3BB
100
AcDbEntity
  8
Capa 1
370
    15
  0
ENDBLK
  5
3BA
330
3B7
100
AcDbEntity
  8
0
100
AcDbBlockEnd
  0
BLOCK
  5
3C1
330
3BF
100
AcDbEntity
  8
0
100
AcDbBlockBegin
  2
block 120
 70
     0
 71
     0
 10
0.0
 20
0.0
 30
0.0
  3
block 120
  1

  0
POLYLINE
  5
3C3
330
3BF
100
AcDbEntity
  8
Capa 1
 62
     7
420
 16777215
370
    15
100
AcDb2dPolyline
 66
     1
 10
0.0
 20
0.0
 30
0.0
  0
VERTEX
  5
3C4
330
3C3
100
AcDbEntity
  8
Capa 1
 62
     7
420
 16777215
370
    15
100
AcDbVertex
100
AcDb2dVertex
 10
130.3131482964148
 20
-148.7392414992735
 30
0.0
  0
VERTEX
  5
3C5
330
3C3
100
AcDbEntity
  8
Capa 1
 62
     7
420
 16777215
370
    15
100
AcDbVertex
100
AcDb2dVertex
 10
130.3131482964148
 20
-155.5446831208361
 30
0.0
  0
SEQEND
  5
3C6
330
3C3
100
AcDbEntity
  8
Capa 1
370
    15
  0
ENDBLK
  5
3C2
330
3BF
100
AcDbEntity
  8
0
100
AcDbBlockEnd
  0
BLOCK
  5
3C9
330
3C7
100
AcDbEntity
  8
0
100
AcDbBlockBegin
  2
block 121
 70
     0
 71
     0
 10
0.0
 20
0.0
 30
0.0
  3
block 121
  1

  0
POLYLINE
  5
3CB
330
3C7
100
AcDbEntity
  8
Capa 1
 62
     7
420
 16777215
370
    15
100
AcDb2dPolyline
 66
     1
 10
0.0
 20
0.0
 30
0.0
  0
VERTEX
  5
3CC
330
3CB
100
AcDbEntity
  8
Capa 1
 62
     7
420
 16777215
370
    15
100
AcDbVertex
100
AcDb2dVertex
 10
130.5873778970407
 20
-157.0598361152489
 30
0.0
  0
VERTEX
  5
3CD
330
3CB
100
AcDbEntity
  8
Capa 1
 62
     7
420
 16777215
370
    15
100
AcDbVertex
100
AcDb2dVertex
 10
130.3131482964148
 20
-156.9861110718646
 30
0.0
  0
SEQEND
  5
3CE
330
3CB
100
AcDbEntity
  8
Capa 1
370
    15
  0
ENDBLK
  5
3CA
330
3C7
100
AcDbEntity
  8
0
100
AcDbBlockEnd
  0
BLOCK
  5
3D1
330
3CF
100
AcDbEntity
  8
0
100
AcDbBlockBegin
  2
block 122
 70
     0
 71
     0
 10
0.0
 20
0.0
 30
0.0
  3
block 122
  1

  0
POLYLINE
  5
3D3
330
3CF
100
AcDbEntity
  8
Capa 1
 62
     7
420
 16777215
370
    15
100
AcDb2dPolyline
 66
     1
 10
0.0
 20
0.0
 30
0.0
  0
VERTEX
  5
3D4
330
3D3
100
AcDbEntity
  8
Capa 1
 62
     7
420
 16777215
370
    15
100
AcDbVertex
100
AcDb2dVertex
 10
130.3131482964148
 20
-155.5446831208361
 30
0.0
  0
VERTEX
  5
3D5
330
3D3
100
AcDbEntity
  8
Capa 1
 62
     7
420
 16777215
370
    15
100
AcDbVertex
100
AcDb2dVertex
 10
130.3131482964148
 20
-156.9861110718646
 30
0.0
  0
SEQEND
  5
3D6
330
3D3
100
AcDbEntity
  8
Capa 1
370
    15
  0
ENDBLK
  5
3D2
330
3CF
100
AcDbEntity
  8
0
100
AcDbBlockEnd
  0
BLOCK
  5
3D9
330
3D7
100
AcDbEntity
  8
0
100
AcDbBlockBegin
  2
block 123
 70
     0
 71
     0
 10
0.0
 20
0.0
 30
0.0
  3
block 123
  1

  0
SPLINE
  5
3DB
330
3D7
100
AcDbEntity
  8
Capa 1
 62
     7
420
 16777215
370
    15
100
AcDbSpline
210
0.0
220
0.0
230
1.0
 70
     8
 71
     3
 72
    26
 73
    22
 74
     0
 42
0.0000000001
 43
0.0000000001
 40
0.0
 40
0.0
 40
0.0
 40
0.0
 40
1.0
 40
1.0
 40
1.0
 40
2.0
 40
2.0
 40
2.0
 40
3.0
 40
3.0
 40
3.0
 40
4.0
 40
4.0
 40
4.0
 40
5.0
 40
5.0
 40
5.0
 40
6.0
 40
6.0
 40
6.0
 40
7.0
 40
7.0
 40
7.0
 40
7.0
 10
130.5873778970407
 20
-157.0598361152489
 30
0.0
 10
130.6201063041505
 20
-157.0625921916372
 30
0.0
 10
130.6266519855725
 20
-157.0622476820886
 30
0.0
 10
130.6325086478974
 20
-157.061214153443
 30
0.0
 10
130.640087857965
 20
-157.0598361152489
 30
0.0
 10
130.647322558484
 20
-157.0574245484093
 30
0.0
 10
130.6542127494545
 20
-157.0543239624725
 30
0.0
 10
130.661102940425
 20
-157.0508788669873
 30
0.0
 10
130.6679931313955
 20
-157.0470892619535
 30
0.0
 10
130.6738497937204
 20
-157.0426106378227
 30
0.0
 10
130.6800509655939
 20
-157.0377875041433
 30
0.0
 10
130.6855631183703
 20
-157.0322753513669
 30
0.0
 10
130.6903862520496
 20
-157.0267631985905
 30
0.0
 10
130.695209385729
 20
-157.0205620267171
 30
0.0
 10
130.6989989907628
 20
-157.0143608548436
 30
0.0
 10
130.7027885957965
 20
-157.0074706638731
 30
0.0
 10
130.7062336912818
 20
-157.0005804729026
 30
0.0
 10
130.7093342772185
 20
-156.9933457723836
 30
0.0
 10
130.7103678058641
 20
-156.9857665623161
 30
0.0
 10
130.7107123154126
 20
-156.9847330336705
 30
0.0
 10
130.7107123154126
 20
-156.9840440145734
 30
0.0
 10
130.7107123154126
 20
-156.9826659763793
 30
0.0
  0
ENDBLK
  5
3DA
330
3D7
100
AcDbEntity
  8
0
100
AcDbBlockEnd
  0
BLOCK
  5
3DE
330
3DC
100
AcDbEntity
  8
0
100
AcDbBlockBegin
  2
block 124
 70
     0
 71
     0
 10
0.0
 20
0.0
 30
0.0
  3
block 124
  1

  0
SPLINE
  5
3E0
330
3DC
100
AcDbEntity
  8
Capa 1
 62
     7
420
 16777215
370
    15
100
AcDbSpline
210
0.0
220
0.0
230
1.0
 70
     8
 71
     3
 72
    56
 73
    52
 74
     0
 42
0.0000000001
 43
0.0000000001
 40
0.0
 40
0.0
 40
0.0
 40
0.0
 40
1.0
 40
1.0
 40
1.0
 40
2.0
 40
2.0
 40
2.0
 40
3.0
 40
3.0
 40
3.0
 40
4.0
 40
4.0
 40
4.0
 40
5.0
 40
5.0
 40
5.0
 40
6.0
 40
6.0
 40
6.0
 40
7.0
 40
7.0
 40
7.0
 40
8.0
 40
8.0
 40
8.0
 40
9.0
 40
9.0
 40
9.0
 40
10.0
 40
10.0
 40
10.0
 40
11.0
 40
11.0
 40
11.0
 40
12.0
 40
12.0
 40
12.0
 40
13.0
 40
13.0
 40
13.0
 40
14.0
 40
14.0
 40
14.0
 40
15.0
 40
15.0
 40
15.0
 40
16.0
 40
16.0
 40
16.0
 40
17.0
 40
17.0
 40
17.0
 40
17.0
 10
130.7114013345096
 20
-155.6180636546719
 30
0.0
 10
130.7131238822523
 20
-155.6900661503136
 30
0.0
 10
130.7131238822523
 20
-155.7152153473559
 30
0.0
 10
130.7131238822523
 20
-155.7403645443983
 30
0.0
 10
130.7131238822523
 20
-155.7665472700861
 30
0.0
 10
130.7131238822523
 20
-155.792729995774
 30
0.0
 10
130.7131238822523
 20
-155.8189127214619
 30
0.0
 10
130.7131238822523
 20
-155.840616823019
 30
0.0
 10
130.7131238822523
 20
-155.8623209245761
 30
0.0
 10
130.7131238822523
 20
-155.8840250261332
 30
0.0
 10
130.7131238822523
 20
-155.9112412804666
 30
0.0
 10
130.7131238822523
 20
-155.9381130252516
 30
0.0
 10
130.7131238822523
 20
-155.964640260488
 30
0.0
 10
130.7131238822523
 20
-155.9863443620451
 30
0.0
 10
130.7131238822523
 20
-156.0077039540536
 30
0.0
 10
130.7131238822523
 20
-156.0294080556107
 30
0.0
 10
130.7131238822523
 20
-156.0507676476193
 30
0.0
 10
130.7131238822523
 20
-156.0717827300793
 30
0.0
 10
130.7131238822523
 20
-156.0927978125393
 30
0.0
 10
130.7131238822523
 20
-156.1138128949993
 30
0.0
 10
130.7131238822523
 20
-156.1344834679108
 30
0.0
 10
130.7131238822523
 20
-156.1551540408223
 30
0.0
 10
130.7131238822523
 20
-156.1737575564427
 30
0.0
 10
130.7131238822523
 20
-156.191672052966
 30
0.0
 10
130.7131238822523
 20
-156.2095865494893
 30
0.0
 10
130.7131238822523
 20
-156.2288790842067
 30
0.0
 10
130.7131238822523
 20
-156.2481716189241
 30
0.0
 10
130.7131238822523
 20
-156.267119644093
 30
0.0
 10
130.7131238822523
 20
-156.2929578602323
 30
0.0
 10
130.7131238822523
 20
-156.3181070572747
 30
0.0
 10
130.7131238822523
 20
-156.3429117447685
 30
0.0
 10
130.7131238822523
 20
-156.3870089669796
 30
0.0
 10
130.7131238822523
 20
-156.4297281509967
 30
0.0
 10
130.7131238822523
 20
-156.4703802777227
 30
0.0
 10
130.7131238822523
 20
-156.5099988758031
 30
0.0
 10
130.7131238822523
 20
-156.5475504165923
 30
0.0
 10
130.7131238822523
 20
-156.5830349000904
 30
0.0
 10
130.7131238822523
 20
-156.619552912234
 30
0.0
 10
130.7131238822523
 20
-156.6540038670865
 30
0.0
 10
130.7131238822523
 20
-156.6863877646479
 30
0.0
 10
130.7131238822523
 20
-156.7194606813063
 30
0.0
 10
130.7131238822523
 20
-156.7504665406735
 30
0.0
 10
130.7131238822523
 20
-156.7780273045555
 30
0.0
 10
130.7131238822523
 20
-156.8055880684375
 30
0.0
 10
130.7131238822523
 20
-156.8303927559313
 30
0.0
 10
130.7131238822523
 20
-156.8520968574884
 30
0.0
 10
130.7131238822523
 20
-156.8765570354336
 30
0.0
 10
130.7131238822523
 20
-156.8972276083451
 30
0.0
 10
130.7131238822523
 20
-156.9134195571258
 30
0.0
 10
130.7131238822523
 20
-156.929266996358
 30
0.0
 10
130.7131238822523
 20
-156.9399467923622
 30
0.0
 10
130.7131238822523
 20
-156.9506265883665
 30
0.0
  0
ENDBLK
  5
3DF
330
3DC
100
AcDbEntity
  8
0
100
AcDbBlockEnd
  0
BLOCK
  5
3E3
330
3E1
100
AcDbEntity
  8
0
100
AcDbBlockBegin
  2
block 125
 70
     0
 71
     0
 10
0.0
 20
0.0
 30
0.0
  3
block 125
  1

  0
SPLINE
  5
3E5
330
3E1
100
AcDbEntity
  8
Capa 1
 62
     7
420
 16777215
370
    15
100
AcDbSpline
210
0.0
220
0.0
230
1.0
 70
     8
 71
     3
 72
    17
 73
    13
 74
     0
 42
0.0000000001
 43
0.0000000001
 40
0.0
 40
0.0
 40
0.0
 40
0.0
 40
1.0
 40
1.0
 40
1.0
 40
2.0
 40
2.0
 40
2.0
 40
3.0
 40
3.0
 40
3.0
 40
4.0
 40
4.0
 40
4.0
 40
4.0
 10
130.6128716036315
 20
-155.6239203169968
 30
0.0
 10
130.6259629664755
 20
-155.6239203169968
 30
0.0
 10
130.6390543293194
 20
-155.6239203169968
 30
0.0
 10
130.6514566730663
 20
-155.6235758074483
 30
0.0
 10
130.6631699977162
 20
-155.6232312978998
 30
0.0
 10
130.674194303269
 20
-155.6228867883512
 30
0.0
 10
130.6838405706277
 20
-155.6221977692542
 30
0.0
 10
130.6934868379864
 20
-155.6215087501571
 30
0.0
 10
130.7014105576024
 20
-155.6208197310601
 30
0.0
 10
130.7052001626362
 20
-155.620130711963
 30
0.0
 10
130.7076117294759
 20
-155.6197862024145
 30
0.0
 10
130.7086452581215
 20
-155.6190971833175
 30
0.0
 10
130.7093342772185
 20
-155.6187526737689
 30
0.0
  0
ENDBLK
  5
3E4
330
3E1
100
AcDbEntity
  8
0
100
AcDbBlockEnd
  0
BLOCK
  5
3E8
330
3E6
100
AcDbEntity
  8
0
100
AcDbBlockBegin
  2
block 126
 70
     0
 71
     0
 10
0.0
 20
0.0
 30
0.0
  3
block 126
  1

  0
POLYLINE
  5
3EA
330
3E6
100
AcDbEntity
  8
Capa 1
370
     0
100
AcDb2dPolyline
 66
     1
 10
0.0
 20
0.0
 30
0.0
  0
VERTEX
  5
3EB
330
3EA
100
AcDbEntity
  8
Capa 1
370
     0
100
AcDbVertex
100
AcDb2dVertex
 10
118.7031765111228
 20
-148.586623769277
 30
0.0
  0
VERTEX
  5
3EC
330
3EA
100
AcDbEntity
  8
Capa 1
370
     0
100
AcDbVertex
100
AcDb2dVertex
 10
118.7031765111228
 20
-145.8863579279381
 30
0.0
  0
VERTEX
  5
3ED
330
3EA
100
AcDbEntity
  8
Capa 1
370
     0
100
AcDbVertex
100
AcDb2dVertex
 10
118.8027397706465
 20
-145.8863579279381
 30
0.0
  0
VERTEX
  5
3EE
330
3EA
100
AcDbEntity
  8
Capa 1
370
     0
100
AcDbVertex
100
AcDb2dVertex
 10
118.8027397706465
 20
-144.9864989871909
 30
0.0
  0
VERTEX
  5
3EF
330
3EA
100
AcDbEntity
  8
Capa 1
370
     0
100
AcDbVertex
100
AcDb2dVertex
 10
118.8027397706465
 20
-144.8862467085701
 30
0.0
  0
VERTEX
  5
3F0
330
3EA
100
AcDbEntity
  8
Capa 1
370
     0
100
AcDbVertex
100
AcDb2dVertex
 10
117.7530191762909
 20
-144.8862467085701
 30
0.0
  0
VERTEX
  5
3F1
330
3EA
100
AcDbEntity
  8
Capa 1
370
     0
100
AcDbVertex
100
AcDb2dVertex
 10
117.2527913118326
 20
-145.3864745730284
 30
0.0
  0
VERTEX
  5
3F2
330
3EA
100
AcDbEntity
  8
Capa 1
370
     0
100
AcDbVertex
100
AcDb2dVertex
 10
117.2527913118326
 20
-151.0708821236906
 30
0.0
  0
VERTEX
  5
3F3
330
3EA
100
AcDbEntity
  8
Capa 1
370
     0
100
AcDbVertex
100
AcDb2dVertex
 10
117.7530191762909
 20
-151.5711099881489
 30
0.0
  0
VERTEX
  5
3F4
330
3EA
100
AcDbEntity
  8
Capa 1
370
     0
100
AcDbVertex
100
AcDb2dVertex
 10
122.0524983418827
 20
-151.5711099881489
 30
0.0
  0
VERTEX
  5
3F5
330
3EA
100
AcDbEntity
  8
Capa 1
370
     0
100
AcDbVertex
100
AcDb2dVertex
 10
122.0524983418827
 20
-151.0867295629228
 30
0.0
  0
VERTEX
  5
3F6
330
3EA
100
AcDbEntity
  8
Capa 1
370
     0
100
AcDbVertex
100
AcDb2dVertex
 10
121.752775034666
 20
-151.0867295629228
 30
0.0
  0
VERTEX
  5
3F7
330
3EA
100
AcDbEntity
  8
Capa 1
370
     0
100
AcDbVertex
100
AcDb2dVertex
 10
121.752775034666
 20
-150.6864094675367
 30
0.0
  0
VERTEX
  5
3F8
330
3EA
100
AcDbEntity
  8
Capa 1
370
     0
100
AcDbVertex
100
AcDb2dVertex
 10
121.7031656596784
 20
-150.6864094675367
 30
0.0
  0
VERTEX
  5
3F9
330
3EA
100
AcDbEntity
  8
Capa 1
370
     0
100
AcDbVertex
100
AcDb2dVertex
 10
121.7031656596784
 20
-149.9939452750015
 30
0.0
  0
VERTEX
  5
3FA
330
3EA
100
AcDbEntity
  8
Capa 1
370
     0
100
AcDbVertex
100
AcDb2dVertex
 10
120.0529649222437
 20
-149.9360676708493
 30
0.0
  0
VERTEX
  5
3FB
330
3EA
100
AcDbEntity
  8
Capa 1
370
     0
100
AcDbVertex
100
AcDb2dVertex
 10
118.7031765111228
 20
-148.586623769277
 30
0.0
  0
SEQEND
  5
3FC
330
3EA
100
AcDbEntity
  8
Capa 1
370
     0
  0
SPLINE
  5
3FD
330
3E6
100
AcDbEntity
  8
Capa 1
370
     0
100
AcDbSpline
210
0.0
220
0.0
230
1.0
 70
    11
 71
     3
 72
    38
 73
    34
 74
     0
 42
0.0000000001
 43
0.0000000001
 40
0.0
 40
0.0
 40
0.0
 40
0.0
 40
1.0
 40
1.0
 40
1.0
 40
2.0
 40
2.0
 40
2.0
 40
3.0
 40
3.0
 40
3.0
 40
4.0
 40
4.0
 40
4.0
 40
5.0
 40
5.0
 40
5.0
 40
6.0
 40
6.0
 40
6.0
 40
7.0
 40
7.0
 40
7.0
 40
8.0
 40
8.0
 40
8.0
 40
9.0
 40
9.0
 40
9.0
 40
10.0
 40
10.0
 40
10.0
 40
11.0
 40
11.0
 40
11.0
 40
11.0
 10
121.4034423524616
 20
-146.8864691473062
 30
0.0
 10
121.4041313715587
 20
-146.897493452859
 30
0.0
 10
121.4055094097528
 20
-146.9088622679603
 30
0.0
 10
121.408954505238
 20
-146.9195420639646
 30
0.0
 10
121.4120550911748
 20
-146.9302218599688
 30
0.0
 10
121.4179117534997
 20
-146.9402126368761
 30
0.0
 10
121.4248019444702
 20
-146.9488253755892
 30
0.0
 10
121.4323811545377
 20
-146.9574381143023
 30
0.0
 10
121.4406493837023
 20
-146.9657063434669
 30
0.0
 10
121.450295651061
 20
-146.9712184962433
 30
0.0
 10
121.4599419184197
 20
-146.9774196681168
 30
0.0
 10
121.4695881857784
 20
-146.9815537826991
 30
0.0
 10
121.4813015104283
 20
-146.9839653495387
 30
0.0
 10
121.4881917013988
 20
-146.9856878972814
 30
0.0
 10
121.4950818923693
 20
-146.9860324068299
 30
0.0
 10
121.5030056119854
 20
-146.9863769163784
 30
0.0
 10
121.5030056119854
 20
-146.9863769163784
 30
0.0
 10
121.7031656596784
 20
-146.9863769163784
 30
0.0
 10
121.7031656596784
 20
-146.9863769163784
 30
0.0
 10
121.7031656596784
 20
-146.9863769163784
 30
0.0
 10
121.7031656596784
 20
-146.4864935614686
 30
0.0
 10
121.7031656596784
 20
-146.4864935614686
 30
0.0
 10
121.7031656596784
 20
-146.4864935614686
 30
0.0
 10
122.0028889668951
 20
-146.4864935614686
 30
0.0
 10
122.0028889668951
 20
-146.4864935614686
 30
0.0
 10
122.0028889668951
 20
-146.4864935614686
 30
0.0
 10
122.0524983418827
 20
-146.4864935614686
 30
0.0
 10
122.0524983418827
 20
-146.4864935614686
 30
0.0
 10
122.0524983418827
 20
-146.4864935614686
 30
0.0
 10
122.0524983418827
 20
-144.8862467085701
 30
0.0
 10
122.0524983418827
 20
-144.8862467085701
 30
0.0
 10
122.0524983418827
 20
-144.8862467085701
 30
0.0
 10
121.4034423524616
 20
-146.8864691473062
 30
0.0
 10
121.4034423524616
 20
-146.8864691473062
 30
0.0
  0
POLYLINE
  5
3FE
330
3E6
100
AcDbEntity
  8
Capa 1
370
     0
100
AcDb2dPolyline
 66
     1
 10
0.0
 20
0.0
 30
0.0
  0
VERTEX
  5
3FF
330
3FE
100
AcDbEntity
  8
Capa 1
370
     0
100
AcDbVertex
100
AcDb2dVertex
 10
117.2527913118326
 20
-146.1898708401887
 30
0.0
  0
VERTEX
  5
400
330
3FE
100
AcDbEntity
  8
Capa 1
370
     0
100
AcDbVertex
100
AcDb2dVertex
 10
118.5564154434512
 20
-144.8862467085701
 30
0.0
  0
SEQEND
  5
401
330
3FE
100
AcDbEntity
  8
Capa 1
370
     0
  0
POLYLINE
  5
402
330
3E6
100
AcDbEntity
  8
Capa 1
370
     0
100
AcDb2dPolyline
 66
     1
 10
0.0
 20
0.0
 30
0.0
  0
VERTEX
  5
403
330
402
100
AcDbEntity
  8
Capa 1
370
     0
100
AcDbVertex
100
AcDb2dVertex
 10
117.2527913118326
 20
-147.3126274588316
 30
0.0
  0
VERTEX
  5
404
330
402
100
AcDbEntity
  8
Capa 1
370
     0
100
AcDbVertex
100
AcDb2dVertex
 10
118.8027397706465
 20
-145.7626790000177
 30
0.0
  0
SEQEND
  5
405
330
402
100
AcDbEntity
  8
Capa 1
370
     0
  0
POLYLINE
  5
406
330
3E6
100
AcDbEntity
  8
Capa 1
370
     0
100
AcDb2dPolyline
 66
     1
 10
0.0
 20
0.0
 30
0.0
  0
VERTEX
  5
407
330
406
100
AcDbEntity
  8
Capa 1
370
     0
100
AcDbVertex
100
AcDb2dVertex
 10
117.2527913118326
 20
-148.4353840774745
 30
0.0
  0
VERTEX
  5
408
330
406
100
AcDbEntity
  8
Capa 1
370
     0
100
AcDbVertex
100
AcDb2dVertex
 10
118.7031765111228
 20
-146.9849988781843
 30
0.0
  0
SEQEND
  5
409
330
406
100
AcDbEntity
  8
Capa 1
370
     0
  0
POLYLINE
  5
40A
330
3E6
100
AcDbEntity
  8
Capa 1
370
     0
100
AcDb2dPolyline
 66
     1
 10
0.0
 20
0.0
 30
0.0
  0
VERTEX
  5
40B
330
40A
100
AcDbEntity
  8
Capa 1
370
     0
100
AcDbVertex
100
AcDb2dVertex
 10
117.2527913118326
 20
-149.5577961865689
 30
0.0
  0
VERTEX
  5
40C
330
40A
100
AcDbEntity
  8
Capa 1
370
     0
100
AcDbVertex
100
AcDb2dVertex
 10
118.7031765111228
 20
-148.1081000063758
 30
0.0
  0
SEQEND
  5
40D
330
40A
100
AcDbEntity
  8
Capa 1
370
     0
  0
POLYLINE
  5
40E
330
3E6
100
AcDbEntity
  8
Capa 1
370
     0
100
AcDb2dPolyline
 66
     1
 10
0.0
 20
0.0
 30
0.0
  0
VERTEX
  5
40F
330
40E
100
AcDbEntity
  8
Capa 1
370
     0
100
AcDbVertex
100
AcDb2dVertex
 10
121.3028455642924
 20
-145.5077419341092
 30
0.0
  0
VERTEX
  5
410
330
40E
100
AcDbEntity
  8
Capa 1
370
     0
100
AcDbVertex
100
AcDb2dVertex
 10
121.9250298089285
 20
-144.8862467085701
 30
0.0
  0
SEQEND
  5
411
330
40E
100
AcDbEntity
  8
Capa 1
370
     0
  0
POLYLINE
  5
412
330
3E6
100
AcDbEntity
  8
Capa 1
370
     0
100
AcDb2dPolyline
 66
     1
 10
0.0
 20
0.0
 30
0.0
  0
VERTEX
  5
413
330
412
100
AcDbEntity
  8
Capa 1
370
     0
100
AcDbVertex
100
AcDb2dVertex
 10
117.2527913118326
 20
-150.6802082956633
 30
0.0
  0
VERTEX
  5
414
330
412
100
AcDbEntity
  8
Capa 1
370
     0
100
AcDbVertex
100
AcDb2dVertex
 10
119.0256374485422
 20
-148.9083956875993
 30
0.0
  0
SEQEND
  5
415
330
412
100
AcDbEntity
  8
Capa 1
370
     0
  0
POLYLINE
  5
416
330
3E6
100
AcDbEntity
  8
Capa 1
370
     0
100
AcDb2dPolyline
 66
     1
 10
0.0
 20
0.0
 30
0.0
  0
VERTEX
  5
417
330
416
100
AcDbEntity
  8
Capa 1
370
     0
100
AcDbVertex
100
AcDb2dVertex
 10
121.4034423524616
 20
-146.5302462741313
 30
0.0
  0
VERTEX
  5
418
330
416
100
AcDbEntity
  8
Capa 1
370
     0
100
AcDbVertex
100
AcDb2dVertex
 10
122.0524983418827
 20
-145.8805012656132
 30
0.0
  0
SEQEND
  5
419
330
416
100
AcDbEntity
  8
Capa 1
370
     0
  0
POLYLINE
  5
41A
330
3E6
100
AcDbEntity
  8
Capa 1
370
     0
100
AcDb2dPolyline
 66
     1
 10
0.0
 20
0.0
 30
0.0
  0
VERTEX
  5
41B
330
41A
100
AcDbEntity
  8
Capa 1
370
     0
100
AcDbVertex
100
AcDb2dVertex
 10
117.6193494714632
 20
-151.4370957737727
 30
0.0
  0
VERTEX
  5
41C
330
41A
100
AcDbEntity
  8
Capa 1
370
     0
100
AcDbVertex
100
AcDb2dVertex
 10
119.5858099744438
 20
-149.4696017421465
 30
0.0
  0
SEQEND
  5
41D
330
41A
100
AcDbEntity
  8
Capa 1
370
     0
  0
POLYLINE
  5
41E
330
3E6
100
AcDbEntity
  8
Capa 1
370
     0
100
AcDb2dPolyline
 66
     1
 10
0.0
 20
0.0
 30
0.0
  0
VERTEX
  5
41F
330
41E
100
AcDbEntity
  8
Capa 1
370
     0
100
AcDbVertex
100
AcDb2dVertex
 10
118.6074028566329
 20
-151.5711099881489
 30
0.0
  0
VERTEX
  5
420
330
41E
100
AcDbEntity
  8
Capa 1
370
     0
100
AcDbVertex
100
AcDb2dVertex
 10
120.2355549829619
 20
-149.9429578618198
 30
0.0
  0
SEQEND
  5
421
330
41E
100
AcDbEntity
  8
Capa 1
370
     0
  0
POLYLINE
  5
422
330
3E6
100
AcDbEntity
  8
Capa 1
370
     0
100
AcDb2dPolyline
 66
     1
 10
0.0
 20
0.0
 30
0.0
  0
VERTEX
  5
423
330
422
100
AcDbEntity
  8
Capa 1
370
     0
100
AcDbVertex
100
AcDb2dVertex
 10
119.7294704561787
 20
-151.5711099881489
 30
0.0
  0
VERTEX
  5
424
330
422
100
AcDbEntity
  8
Capa 1
370
     0
100
AcDbVertex
100
AcDb2dVertex
 10
121.3200710417186
 20
-149.980509402609
 30
0.0
  0
SEQEND
  5
425
330
422
100
AcDbEntity
  8
Capa 1
370
     0
  0
POLYLINE
  5
426
330
3E6
100
AcDbEntity
  8
Capa 1
370
     0
100
AcDb2dPolyline
 66
     1
 10
0.0
 20
0.0
 30
0.0
  0
VERTEX
  5
427
330
426
100
AcDbEntity
  8
Capa 1
370
     0
100
AcDbVertex
100
AcDb2dVertex
 10
120.8525715843702
 20
-151.5711099881489
 30
0.0
  0
VERTEX
  5
428
330
426
100
AcDbEntity
  8
Capa 1
370
     0
100
AcDbVertex
100
AcDb2dVertex
 10
121.7372721049824
 20
-150.6864094675367
 30
0.0
  0
SEQEND
  5
429
330
426
100
AcDbEntity
  8
Capa 1
370
     0
  0
POLYLINE
  5
42A
330
3E6
100
AcDbEntity
  8
Capa 1
370
     0
100
AcDb2dPolyline
 66
     1
 10
0.0
 20
0.0
 30
0.0
  0
VERTEX
  5
42B
330
42A
100
AcDbEntity
  8
Capa 1
370
     0
100
AcDbVertex
100
AcDb2dVertex
 10
121.9746391839161
 20
-151.5711099881489
 30
0.0
  0
VERTEX
  5
42C
330
42A
100
AcDbEntity
  8
Capa 1
370
     0
100
AcDbVertex
100
AcDb2dVertex
 10
122.0524983418827
 20
-151.4925618110852
 30
0.0
  0
SEQEND
  5
42D
330
42A
100
AcDbEntity
  8
Capa 1
370
     0
  0
ENDBLK
  5
3E9
330
3E6
100
AcDbEntity
  8
0
100
AcDbBlockEnd
  0
BLOCK
  5
430
330
42E
100
AcDbEntity
  8
0
100
AcDbBlockBegin
  2
block 127
 70
     0
 71
     0
 10
0.0
 20
0.0
 30
0.0
  3
block 127
  1

  0
POLYLINE
  5
432
330
42E
100
AcDbEntity
  8
Capa 1
 62
   253
420
 11381932
370
    15
100
AcDb2dPolyline
 66
     1
 10
0.0
 20
0.0
 30
0.0
  0
VERTEX
  5
433
330
432
100
AcDbEntity
  8
Capa 1
 62
   253
420
 11381932
370
    15
100
AcDbVertex
100
AcDb2dVertex
 10
117.7530191762909
 20
-144.8862467085701
 30
0.0
  0
VERTEX
  5
434
330
432
100
AcDbEntity
  8
Capa 1
 62
   253
420
 11381932
370
    15
100
AcDbVertex
100
AcDb2dVertex
 10
118.8030842801951
 20
-144.8862467085701
 30
0.0
  0
SEQEND
  5
435
330
432
100
AcDbEntity
  8
Capa 1
370
    15
  0
ENDBLK
  5
431
330
42E
100
AcDbEntity
  8
0
100
AcDbBlockEnd
  0
BLOCK
  5
438
330
436
100
AcDbEntity
  8
0
100
AcDbBlockBegin
  2
block 128
 70
     0
 71
     0
 10
0.0
 20
0.0
 30
0.0
  3
block 128
  1

  0
SPLINE
  5
43A
330
436
100
AcDbEntity
  8
Capa 1
 62
   253
420
 11381932
370
    15
100
AcDbSpline
210
0.0
220
0.0
230
1.0
 70
     8
 71
     3
 72
     8
 73
     4
 74
     0
 42
0.0000000001
 43
0.0000000001
 40
0.0
 40
0.0
 40
0.0
 40
0.0
 40
1.0
 40
1.0
 40
1.0
 40
1.0
 10
117.7530191762909
 20
-144.8862467085701
 30
0.0
 10
117.4767225183739
 20
-144.8862467085701
 30
0.0
 10
117.2531358213812
 20
-145.1101779151114
 30
0.0
 10
117.2531358213812
 20
-145.3864745730284
 30
0.0
  0
ENDBLK
  5
439
330
436
100
AcDbEntity
  8
0
100
AcDbBlockEnd
  0
BLOCK
  5
43D
330
43B
100
AcDbEntity
  8
0
100
AcDbBlockBegin
  2
block 129
 70
     0
 71
     0
 10
0.0
 20
0.0
 30
0.0
  3
block 129
  1

  0
POLYLINE
  5
43F
330
43B
100
AcDbEntity
  8
Capa 1
 62
   253
420
 11381932
370
    15
100
AcDb2dPolyline
 66
     1
 10
0.0
 20
0.0
 30
0.0
  0
VERTEX
  5
440
330
43F
100
AcDbEntity
  8
Capa 1
 62
   253
420
 11381932
370
    15
100
AcDbVertex
100
AcDb2dVertex
 10
117.2531358213812
 20
-151.0712266332391
 30
0.0
  0
VERTEX
  5
441
330
43F
100
AcDbEntity
  8
Capa 1
 62
   253
420
 11381932
370
    15
100
AcDbVertex
100
AcDb2dVertex
 10
117.2531358213812
 20
-145.3864745730284
 30
0.0
  0
SEQEND
  5
442
330
43F
100
AcDbEntity
  8
Capa 1
370
    15
  0
ENDBLK
  5
43E
330
43B
100
AcDbEntity
  8
0
100
AcDbBlockEnd
  0
BLOCK
  5
445
330
443
100
AcDbEntity
  8
0
100
AcDbBlockBegin
  2
block 130
 70
     0
 71
     0
 10
0.0
 20
0.0
 30
0.0
  3
block 130
  1

  0
SPLINE
  5
447
330
443
100
AcDbEntity
  8
Capa 1
 62
   253
420
 11381932
370
    15
100
AcDbSpline
210
0.0
220
0.0
230
1.0
 70
     8
 71
     3
 72
     8
 73
     4
 74
     0
 42
0.0000000001
 43
0.0000000001
 40
0.0
 40
0.0
 40
0.0
 40
0.0
 40
1.0
 40
1.0
 40
1.0
 40
1.0
 10
117.2531358213812
 20
-151.0712266332391
 30
0.0
 10
117.2531358213812
 20
-151.3471787816077
 30
0.0
 10
117.4767225183739
 20
-151.5711099881489
 30
0.0
 10
117.7530191762909
 20
-151.5711099881489
 30
0.0
  0
ENDBLK
  5
446
330
443
100
AcDbEntity
  8
0
100
AcDbBlockEnd
  0
BLOCK
  5
44A
330
448
100
AcDbEntity
  8
0
100
AcDbBlockBegin
  2
block 131
 70
     0
 71
     0
 10
0.0
 20
0.0
 30
0.0
  3
block 131
  1

  0
POLYLINE
  5
44C
330
448
100
AcDbEntity
  8
Capa 1
 62
   253
420
 11381932
370
    15
100
AcDb2dPolyline
 66
     1
 10
0.0
 20
0.0
 30
0.0
  0
VERTEX
  5
44D
330
44C
100
AcDbEntity
  8
Capa 1
 62
   253
420
 11381932
370
    15
100
AcDbVertex
100
AcDb2dVertex
 10
122.0531873609798
 20
-151.5711099881489
 30
0.0
  0
VERTEX
  5
44E
330
44C
100
AcDbEntity
  8
Capa 1
 62
   253
420
 11381932
370
    15
100
AcDbVertex
100
AcDb2dVertex
 10
117.7530191762909
 20
-151.5711099881489
 30
0.0
  0
SEQEND
  5
44F
330
44C
100
AcDbEntity
  8
Capa 1
370
    15
  0
ENDBLK
  5
44B
330
448
100
AcDbEntity
  8
0
100
AcDbBlockEnd
  0
BLOCK
  5
452
330
450
100
AcDbEntity
  8
0
100
AcDbBlockBegin
  2
block 132
 70
     0
 71
     0
 10
0.0
 20
0.0
 30
0.0
  3
block 132
  1

  0
POLYLINE
  5
454
330
450
100
AcDbEntity
  8
Capa 1
 62
   253
420
 11381932
370
    15
100
AcDb2dPolyline
 66
     1
 10
0.0
 20
0.0
 30
0.0
  0
VERTEX
  5
455
330
454
100
AcDbEntity
  8
Capa 1
 62
   253
420
 11381932
370
    15
100
AcDbVertex
100
AcDb2dVertex
 10
122.0531873609798
 20
-151.5711099881489
 30
0.0
  0
VERTEX
  5
456
330
454
100
AcDbEntity
  8
Capa 1
 62
   253
420
 11381932
370
    15
100
AcDbVertex
100
AcDb2dVertex
 10
122.0531873609798
 20
-150.6864094675367
 30
0.0
  0
SEQEND
  5
457
330
454
100
AcDbEntity
  8
Capa 1
370
    15
  0
ENDBLK
  5
453
330
450
100
AcDbEntity
  8
0
100
AcDbBlockEnd
  0
BLOCK
  5
45A
330
458
100
AcDbEntity
  8
0
100
AcDbBlockBegin
  2
block 133
 70
     0
 71
     0
 10
0.0
 20
0.0
 30
0.0
  3
block 133
  1

  0
POLYLINE
  5
45C
330
458
100
AcDbEntity
  8
Capa 1
 62
   253
420
 11381932
370
    15
100
AcDb2dPolyline
 66
     1
 10
0.0
 20
0.0
 30
0.0
  0
VERTEX
  5
45D
330
45C
100
AcDbEntity
  8
Capa 1
 62
   253
420
 11381932
370
    15
100
AcDbVertex
100
AcDb2dVertex
 10
122.0531873609798
 20
-151.0863850533742
 30
0.0
  0
VERTEX
  5
45E
330
45C
100
AcDbEntity
  8
Capa 1
 62
   253
420
 11381932
370
    15
100
AcDbVertex
100
AcDb2dVertex
 10
121.7531195442145
 20
-151.0863850533742
 30
0.0
  0
SEQEND
  5
45F
330
45C
100
AcDbEntity
  8
Capa 1
370
    15
  0
ENDBLK
  5
45B
330
458
100
AcDbEntity
  8
0
100
AcDbBlockEnd
  0
BLOCK
  5
462
330
460
100
AcDbEntity
  8
0
100
AcDbBlockBegin
  2
block 134
 70
     0
 71
     0
 10
0.0
 20
0.0
 30
0.0
  3
block 134
  1

  0
POLYLINE
  5
464
330
460
100
AcDbEntity
  8
Capa 1
 62
   253
420
 11381932
370
    15
100
AcDb2dPolyline
 66
     1
 10
0.0
 20
0.0
 30
0.0
  0
VERTEX
  5
465
330
464
100
AcDbEntity
  8
Capa 1
 62
   253
420
 11381932
370
    15
100
AcDbVertex
100
AcDb2dVertex
 10
121.7531195442145
 20
-150.6864094675367
 30
0.0
  0
VERTEX
  5
466
330
464
100
AcDbEntity
  8
Capa 1
 62
   253
420
 11381932
370
    15
100
AcDbVertex
100
AcDb2dVertex
 10
121.7531195442145
 20
-151.0863850533742
 30
0.0
  0
SEQEND
  5
467
330
464
100
AcDbEntity
  8
Capa 1
370
    15
  0
ENDBLK
  5
463
330
460
100
AcDbEntity
  8
0
100
AcDbBlockEnd
  0
BLOCK
  5
46A
330
468
100
AcDbEntity
  8
0
100
AcDbBlockBegin
  2
block 135
 70
     0
 71
     0
 10
0.0
 20
0.0
 30
0.0
  3
block 135
  1

  0
POLYLINE
  5
46C
330
468
100
AcDbEntity
  8
Capa 1
 62
   253
420
 11381932
370
    15
100
AcDb2dPolyline
 66
     1
 10
0.0
 20
0.0
 30
0.0
  0
VERTEX
  5
46D
330
46C
100
AcDbEntity
  8
Capa 1
 62
   253
420
 11381932
370
    15
100
AcDbVertex
100
AcDb2dVertex
 10
122.0531873609798
 20
-144.8862467085701
 30
0.0
  0
VERTEX
  5
46E
330
46C
100
AcDbEntity
  8
Capa 1
 62
   253
420
 11381932
370
    15
100
AcDbVertex
100
AcDb2dVertex
 10
122.0531873609798
 20
-146.4861490519201
 30
0.0
  0
SEQEND
  5
46F
330
46C
100
AcDbEntity
  8
Capa 1
370
    15
  0
ENDBLK
  5
46B
330
468
100
AcDbEntity
  8
0
100
AcDbBlockEnd
  0
BLOCK
  5
472
330
470
100
AcDbEntity
  8
0
100
AcDbBlockBegin
  2
block 136
 70
     0
 71
     0
 10
0.0
 20
0.0
 30
0.0
  3
block 136
  1

  0
POLYLINE
  5
474
330
470
100
AcDbEntity
  8
Capa 1
 62
   253
420
 11381932
370
    15
100
AcDb2dPolyline
 66
     1
 10
0.0
 20
0.0
 30
0.0
  0
VERTEX
  5
475
330
474
100
AcDbEntity
  8
Capa 1
 62
   253
420
 11381932
370
    15
100
AcDbVertex
100
AcDb2dVertex
 10
122.0531873609798
 20
-144.8862467085701
 30
0.0
  0
VERTEX
  5
476
330
474
100
AcDbEntity
  8
Capa 1
 62
   253
420
 11381932
370
    15
100
AcDbVertex
100
AcDb2dVertex
 10
121.3028455642924
 20
-144.8862467085701
 30
0.0
  0
SEQEND
  5
477
330
474
100
AcDbEntity
  8
Capa 1
370
    15
  0
ENDBLK
  5
473
330
470
100
AcDbEntity
  8
0
100
AcDbBlockEnd
  0
BLOCK
  5
47A
330
478
100
AcDbEntity
  8
0
100
AcDbBlockBegin
  2
block 137
 70
     0
 71
     0
 10
0.0
 20
0.0
 30
0.0
  3
block 137
  1

  0
POLYLINE
  5
47C
330
478
100
AcDbEntity
  8
Capa 1
 62
   253
420
 11381932
370
    15
100
AcDb2dPolyline
 66
     1
 10
0.0
 20
0.0
 30
0.0
  0
VERTEX
  5
47D
330
47C
100
AcDbEntity
  8
Capa 1
 62
   253
420
 11381932
370
    15
100
AcDbVertex
100
AcDb2dVertex
 10
120.7282036373527
 20
-144.8862467085701
 30
0.0
  0
VERTEX
  5
47E
330
47C
100
AcDbEntity
  8
Capa 1
 62
   253
420
 11381932
370
    15
100
AcDbVertex
100
AcDb2dVertex
 10
120.7282036373527
 20
-145.6045491172447
 30
0.0
  0
SEQEND
  5
47F
330
47C
100
AcDbEntity
  8
Capa 1
370
    15
  0
ENDBLK
  5
47B
330
478
100
AcDbEntity
  8
0
100
AcDbBlockEnd
  0
BLOCK
  5
482
330
480
100
AcDbEntity
  8
0
100
AcDbBlockBegin
  2
block 138
 70
     0
 71
     0
 10
0.0
 20
0.0
 30
0.0
  3
block 138
  1

  0
POLYLINE
  5
484
330
480
100
AcDbEntity
  8
Capa 1
 62
   253
420
 11381932
370
    15
100
AcDb2dPolyline
 66
     1
 10
0.0
 20
0.0
 30
0.0
  0
VERTEX
  5
485
330
484
100
AcDbEntity
  8
Capa 1
 62
   253
420
 11381932
370
    15
100
AcDbVertex
100
AcDb2dVertex
 10
119.3780707166833
 20
-144.8862467085701
 30
0.0
  0
VERTEX
  5
486
330
484
100
AcDbEntity
  8
Capa 1
 62
   253
420
 11381932
370
    15
100
AcDbVertex
100
AcDb2dVertex
 10
119.3780707166833
 20
-145.4471082535688
 30
0.0
  0
SEQEND
  5
487
330
484
100
AcDbEntity
  8
Capa 1
370
    15
  0
ENDBLK
  5
483
330
480
100
AcDbEntity
  8
0
100
AcDbBlockEnd
  0
BLOCK
  5
48A
330
488
100
AcDbEntity
  8
0
100
AcDbBlockBegin
  2
block 139
 70
     0
 71
     0
 10
0.0
 20
0.0
 30
0.0
  3
block 139
  1

  0
SPLINE
  5
48C
330
488
100
AcDbEntity
  8
Capa 1
370
     0
100
AcDbSpline
210
0.0
220
0.0
230
1.0
 70
    11
 71
     3
 72
    23
 73
    19
 74
     0
 42
0.0000000001
 43
0.0000000001
 40
0.0
 40
0.0
 40
0.0
 40
0.0
 40
1.0
 40
1.0
 40
1.0
 40
2.0
 40
2.0
 40
2.0
 40
3.0
 40
3.0
 40
3.0
 40
4.0
 40
4.0
 40
4.0
 40
5.0
 40
5.0
 40
5.0
 40
6.0
 40
6.0
 40
6.0
 40
6.0
 10
120.9776285504848
 20
-145.5749212960716
 30
0.0
 10
121.1278347136417
 20
-145.5456379844469
 30
0.0
 10
121.2783853863471
 20
-145.5039523290754
 30
0.0
 10
121.4275580208584
 20
-145.4626111832524
 30
0.0
 10
121.4275580208584
 20
-145.4626111832524
 30
0.0
 10
121.3028455642924
 20
-145.4626111832524
 30
0.0
 10
121.3028455642924
 20
-145.4626111832524
 30
0.0
 10
121.3028455642924
 20
-145.4626111832524
 30
0.0
 10
121.3028455642924
 20
-144.8862467085701
 30
0.0
 10
121.3028455642924
 20
-144.8862467085701
 30
0.0
 10
121.3028455642924
 20
-144.8862467085701
 30
0.0
 10
120.9776285504848
 20
-144.8862467085701
 30
0.0
 10
120.9776285504848
 20
-144.8862467085701
 30
0.0
 10
120.9776285504848
 20
-144.8862467085701
 30
0.0
 10
120.9776285504848
 20
-145.5749212960716
 30
0.0
 10
120.9776285504848
 20
-145.5749212960716
 30
0.0
 10
120.9776285504848
 20
-145.5749212960716
 30
0.0
 10
120.9776285504848
 20
-145.5749212960716
 30
0.0
 10
120.9776285504848
 20
-145.5749212960716
 30
0.0
  0
SPLINE
  5
48D
330
488
100
AcDbEntity
  8
Capa 1
370
     0
100
AcDbSpline
210
0.0
220
0.0
230
1.0
 70
    11
 71
     3
 72
    20
 73
    16
 74
     0
 42
0.0000000001
 43
0.0000000001
 40
0.0
 40
0.0
 40
0.0
 40
0.0
 40
1.0
 40
1.0
 40
1.0
 40
2.0
 40
2.0
 40
2.0
 40
3.0
 40
3.0
 40
3.0
 40
4.0
 40
4.0
 40
4.0
 40
5.0
 40
5.0
 40
5.0
 40
5.0
 10
120.7785020314373
 20
-145.6045491172447
 30
0.0
 10
120.8446478647541
 20
-145.5980034358227
 30
0.0
 10
120.9111382076194
 20
-145.587668149367
 30
0.0
 10
120.9776285504848
 20
-145.5749212960716
 30
0.0
 10
120.9776285504848
 20
-145.5749212960716
 30
0.0
 10
120.9776285504848
 20
-144.8862467085701
 30
0.0
 10
120.9776285504848
 20
-144.8862467085701
 30
0.0
 10
120.9776285504848
 20
-144.8862467085701
 30
0.0
 10
120.7275146182556
 20
-144.8862467085701
 30
0.0
 10
120.7275146182556
 20
-144.8862467085701
 30
0.0
 10
120.7275146182556
 20
-144.8862467085701
 30
0.0
 10
120.7275146182556
 20
-145.6045491172447
 30
0.0
 10
120.7275146182556
 20
-145.6045491172447
 30
0.0
 10
120.7275146182556
 20
-145.6045491172447
 30
0.0
 10
120.7785020314373
 20
-145.6045491172447
 30
0.0
 10
120.7785020314373
 20
-145.6045491172447
 30
0.0
  0
SPLINE
  5
48E
330
488
100
AcDbEntity
  8
Capa 1
370
     0
100
AcDbSpline
210
0.0
220
0.0
230
1.0
 70
    11
 71
     3
 72
    20
 73
    16
 74
     0
 42
0.0000000001
 43
0.0000000001
 40
0.0
 40
0.0
 40
0.0
 40
0.0
 40
1.0
 40
1.0
 40
1.0
 40
2.0
 40
2.0
 40
2.0
 40
3.0
 40
3.0
 40
3.0
 40
4.0
 40
4.0
 40
4.0
 40
5.0
 40
5.0
 40
5.0
 40
5.0
 10
119.1779106689903
 20
-145.4705349028685
 30
0.0
 10
119.244056502307
 20
-145.4588215782186
 30
0.0
 10
119.3115803738179
 20
-145.450553349054
 30
0.0
 10
119.3777262071347
 20
-145.4474527631173
 30
0.0
 10
119.3777262071347
 20
-145.4474527631173
 30
0.0
 10
119.3777262071347
 20
-144.8862467085701
 30
0.0
 10
119.3777262071347
 20
-144.8862467085701
 30
0.0
 10
119.3777262071347
 20
-144.8862467085701
 30
0.0
 10
119.1779106689903
 20
-144.8862467085701
 30
0.0
 10
119.1779106689903
 20
-144.8862467085701
 30
0.0
 10
119.1779106689903
 20
-144.8862467085701
 30
0.0
 10
119.1779106689903
 20
-145.4705349028685
 30
0.0
 10
119.1779106689903
 20
-145.4705349028685
 30
0.0
 10
119.1779106689903
 20
-145.4705349028685
 30
0.0
 10
119.1779106689903
 20
-145.4705349028685
 30
0.0
 10
119.1779106689903
 20
-145.4705349028685
 30
0.0
  0
SPLINE
  5
48F
330
488
100
AcDbEntity
  8
Capa 1
370
     0
100
AcDbSpline
210
0.0
220
0.0
230
1.0
 70
    11
 71
     3
 72
    20
 73
    16
 74
     0
 42
0.0000000001
 43
0.0000000001
 40
0.0
 40
0.0
 40
0.0
 40
0.0
 40
1.0
 40
1.0
 40
1.0
 40
2.0
 40
2.0
 40
2.0
 40
3.0
 40
3.0
 40
3.0
 40
4.0
 40
4.0
 40
4.0
 40
5.0
 40
5.0
 40
5.0
 40
5.0
 10
118.7272921795196
 20
-145.6114393082152
 30
0.0
 10
118.871297170803
 20
-145.5483940608351
 30
0.0
 10
119.0235703912511
 20
-145.4987846858475
 30
0.0
 10
119.1779106689903
 20
-145.4705349028685
 30
0.0
 10
119.1779106689903
 20
-145.4705349028685
 30
0.0
 10
119.1779106689903
 20
-144.8862467085701
 30
0.0
 10
119.1779106689903
 20
-144.8862467085701
 30
0.0
 10
119.1779106689903
 20
-144.8862467085701
 30
0.0
 10
118.8027397706465
 20
-144.8862467085701
 30
0.0
 10
118.8027397706465
 20
-144.8862467085701
 30
0.0
 10
118.8027397706465
 20
-144.8862467085701
 30
0.0
 10
118.8027397706465
 20
-145.6114393082152
 30
0.0
 10
118.8027397706465
 20
-145.6114393082152
 30
0.0
 10
118.8027397706465
 20
-145.6114393082152
 30
0.0
 10
118.7272921795196
 20
-145.6114393082152
 30
0.0
 10
118.7272921795196
 20
-145.6114393082152
 30
0.0
  0
POLYLINE
  5
490
330
488
100
AcDbEntity
  8
Capa 1
370
     0
100
AcDb2dPolyline
 66
     1
 10
0.0
 20
0.0
 30
0.0
  0
VERTEX
  5
491
330
490
100
AcDbEntity
  8
Capa 1
370
     0
100
AcDbVertex
100
AcDb2dVertex
 10
118.8027397706465
 20
-144.9430907840767
 30
0.0
  0
VERTEX
  5
492
330
490
100
AcDbEntity
  8
Capa 1
370
     0
100
AcDbVertex
100
AcDb2dVertex
 10
118.8602728652502
 20
-144.8862467085701
 30
0.0
  0
SEQEND
  5
493
330
490
100
AcDbEntity
  8
Capa 1
370
     0
  0
POLYLINE
  5
494
330
488
100
AcDbEntity
  8
Capa 1
370
     0
100
AcDb2dPolyline
 66
     1
 10
0.0
 20
0.0
 30
0.0
  0
VERTEX
  5
495
330
494
100
AcDbEntity
  8
Capa 1
370
     0
100
AcDbVertex
100
AcDb2dVertex
 10
118.8027397706465
 20
-145.2796766129856
 30
0.0
  0
VERTEX
  5
496
330
494
100
AcDbEntity
  8
Capa 1
370
     0
100
AcDbVertex
100
AcDb2dVertex
 10
119.1779106689903
 20
-144.9048502241905
 30
0.0
  0
SEQEND
  5
497
330
494
100
AcDbEntity
  8
Capa 1
370
     0
  0
POLYLINE
  5
498
330
488
100
AcDbEntity
  8
Capa 1
370
     0
100
AcDb2dPolyline
 66
     1
 10
0.0
 20
0.0
 30
0.0
  0
VERTEX
  5
499
330
498
100
AcDbEntity
  8
Capa 1
370
     0
100
AcDbVertex
100
AcDb2dVertex
 10
119.1779106689903
 20
-144.9048502241905
 30
0.0
  0
VERTEX
  5
49A
330
498
100
AcDbEntity
  8
Capa 1
370
     0
100
AcDbVertex
100
AcDb2dVertex
 10
119.1965141846106
 20
-144.8862467085701
 30
0.0
  0
SEQEND
  5
49B
330
498
100
AcDbEntity
  8
Capa 1
370
     0
  0
POLYLINE
  5
49C
330
488
100
AcDbEntity
  8
Capa 1
370
     0
100
AcDb2dPolyline
 66
     1
 10
0.0
 20
0.0
 30
0.0
  0
VERTEX
  5
49D
330
49C
100
AcDbEntity
  8
Capa 1
370
     0
100
AcDbVertex
100
AcDb2dVertex
 10
118.8447699355666
 20
-145.5749212960716
 30
0.0
  0
VERTEX
  5
49E
330
49C
100
AcDbEntity
  8
Capa 1
370
     0
100
AcDbVertex
100
AcDb2dVertex
 10
119.1779106689903
 20
-145.2417805626479
 30
0.0
  0
SEQEND
  5
49F
330
49C
100
AcDbEntity
  8
Capa 1
370
     0
  0
POLYLINE
  5
4A0
330
488
100
AcDbEntity
  8
Capa 1
370
     0
100
AcDb2dPolyline
 66
     1
 10
0.0
 20
0.0
 30
0.0
  0
VERTEX
  5
4A1
330
4A0
100
AcDbEntity
  8
Capa 1
370
     0
100
AcDbVertex
100
AcDb2dVertex
 10
119.1779106689903
 20
-145.2417805626479
 30
0.0
  0
VERTEX
  5
4A2
330
4A0
100
AcDbEntity
  8
Capa 1
370
     0
100
AcDbVertex
100
AcDb2dVertex
 10
119.3777262071347
 20
-145.0416205149549
 30
0.0
  0
SEQEND
  5
4A3
330
4A0
100
AcDbEntity
  8
Capa 1
370
     0
  0
POLYLINE
  5
4A4
330
488
100
AcDbEntity
  8
Capa 1
370
     0
100
AcDb2dPolyline
 66
     1
 10
0.0
 20
0.0
 30
0.0
  0
VERTEX
  5
4A5
330
4A4
100
AcDbEntity
  8
Capa 1
370
     0
100
AcDbVertex
100
AcDb2dVertex
 10
119.2998670491681
 20
-145.4560655018304
 30
0.0
  0
VERTEX
  5
4A6
330
4A4
100
AcDbEntity
  8
Capa 1
370
     0
100
AcDbVertex
100
AcDb2dVertex
 10
119.3777262071347
 20
-145.3785508534123
 30
0.0
  0
SEQEND
  5
4A7
330
4A4
100
AcDbEntity
  8
Capa 1
370
     0
  0
POLYLINE
  5
4A8
330
488
100
AcDbEntity
  8
Capa 1
370
     0
100
AcDb2dPolyline
 66
     1
 10
0.0
 20
0.0
 30
0.0
  0
VERTEX
  5
4A9
330
4A8
100
AcDbEntity
  8
Capa 1
370
     0
100
AcDbVertex
100
AcDb2dVertex
 10
120.7275146182556
 20
-145.0385199290182
 30
0.0
  0
VERTEX
  5
4AA
330
4A8
100
AcDbEntity
  8
Capa 1
370
     0
100
AcDbVertex
100
AcDb2dVertex
 10
120.8808213673492
 20
-144.8862467085701
 30
0.0
  0
SEQEND
  5
4AB
330
4A8
100
AcDbEntity
  8
Capa 1
370
     0
  0
POLYLINE
  5
4AC
330
488
100
AcDbEntity
  8
Capa 1
370
     0
100
AcDb2dPolyline
 66
     1
 10
0.0
 20
0.0
 30
0.0
  0
VERTEX
  5
4AD
330
4AC
100
AcDbEntity
  8
Capa 1
370
     0
100
AcDbVertex
100
AcDb2dVertex
 10
120.7275146182556
 20
-145.3754502674756
 30
0.0
  0
VERTEX
  5
4AE
330
4AC
100
AcDbEntity
  8
Capa 1
370
     0
100
AcDbVertex
100
AcDb2dVertex
 10
120.9776285504848
 20
-145.125680844795
 30
0.0
  0
SEQEND
  5
4AF
330
4AC
100
AcDbEntity
  8
Capa 1
370
     0
  0
POLYLINE
  5
4B0
330
488
100
AcDbEntity
  8
Capa 1
370
     0
100
AcDb2dPolyline
 66
     1
 10
0.0
 20
0.0
 30
0.0
  0
VERTEX
  5
4B1
330
4B0
100
AcDbEntity
  8
Capa 1
370
     0
100
AcDbVertex
100
AcDb2dVertex
 10
120.9776285504848
 20
-145.125680844795
 30
0.0
  0
VERTEX
  5
4B2
330
4B0
100
AcDbEntity
  8
Capa 1
370
     0
100
AcDbVertex
100
AcDb2dVertex
 10
121.2167181771611
 20
-144.8862467085701
 30
0.0
  0
SEQEND
  5
4B3
330
4B0
100
AcDbEntity
  8
Capa 1
370
     0
  0
POLYLINE
  5
4B4
330
488
100
AcDbEntity
  8
Capa 1
370
     0
100
AcDb2dPolyline
 66
     1
 10
0.0
 20
0.0
 30
0.0
  0
VERTEX
  5
4B5
330
4B4
100
AcDbEntity
  8
Capa 1
370
     0
100
AcDbVertex
100
AcDb2dVertex
 10
120.8456813933997
 20
-145.5945583403375
 30
0.0
  0
VERTEX
  5
4B6
330
4B4
100
AcDbEntity
  8
Capa 1
370
     0
100
AcDbVertex
100
AcDb2dVertex
 10
120.9776285504848
 20
-145.4626111832524
 30
0.0
  0
SEQEND
  5
4B7
330
4B4
100
AcDbEntity
  8
Capa 1
370
     0
  0
POLYLINE
  5
4B8
330
488
100
AcDbEntity
  8
Capa 1
370
     0
100
AcDb2dPolyline
 66
     1
 10
0.0
 20
0.0
 30
0.0
  0
VERTEX
  5
4B9
330
4B8
100
AcDbEntity
  8
Capa 1
370
     0
100
AcDbVertex
100
AcDb2dVertex
 10
120.9776285504848
 20
-145.4626111832524
 30
0.0
  0
VERTEX
  5
4BA
330
4B8
100
AcDbEntity
  8
Capa 1
370
     0
100
AcDbVertex
100
AcDb2dVertex
 10
121.3028455642924
 20
-145.1373941694448
 30
0.0
  0
SEQEND
  5
4BB
330
4B8
100
AcDbEntity
  8
Capa 1
370
     0
  0
ENDBLK
  5
48B
330
488
100
AcDbEntity
  8
0
100
AcDbBlockEnd
  0
BLOCK
  5
4BE
330
4BC
100
AcDbEntity
  8
0
100
AcDbBlockBegin
  2
block 140
 70
     0
 71
     0
 10
0.0
 20
0.0
 30
0.0
  3
block 140
  1

  0
SPLINE
  5
4C0
330
4BC
100
AcDbEntity
  8
Capa 1
370
     0
100
AcDbSpline
210
0.0
220
0.0
230
1.0
 70
    11
 71
     3
 72
    23
 73
    19
 74
     0
 42
0.0000000001
 43
0.0000000001
 40
0.0
 40
0.0
 40
0.0
 40
0.0
 40
1.0
 40
1.0
 40
1.0
 40
2.0
 40
2.0
 40
2.0
 40
3.0
 40
3.0
 40
3.0
 40
4.0
 40
4.0
 40
4.0
 40
5.0
 40
5.0
 40
5.0
 40
6.0
 40
6.0
 40
6.0
 40
6.0
 10
94.02940264576348
 20
-145.2121527414747
 30
0.0
 10
94.17960880892038
 20
-145.1832139393987
 30
0.0
 10
94.32912595298022
 20
-145.1411837744786
 30
0.0
 10
94.47933211613712
 20
-145.0998426286556
 30
0.0
 10
94.47933211613712
 20
-145.0998426286556
 30
0.0
 10
94.38011336616192
 20
-145.0998426286556
 30
0.0
 10
94.38011336616192
 20
-145.0998426286556
 30
0.0
 10
94.38011336616192
 20
-145.0998426286556
 30
0.0
 10
94.38011336616192
 20
-144.5238226635218
 30
0.0
 10
94.38011336616192
 20
-144.5238226635218
 30
0.0
 10
94.38011336616192
 20
-144.5238226635218
 30
0.0
 10
94.02940264576348
 20
-144.5238226635218
 30
0.0
 10
94.02940264576348
 20
-144.5238226635218
 30
0.0
 10
94.02940264576348
 20
-144.5238226635218
 30
0.0
 10
94.02940264576348
 20
-145.2121527414747
 30
0.0
 10
94.02940264576348
 20
-145.2121527414747
 30
0.0
 10
94.02940264576348
 20
-145.2121527414747
 30
0.0
 10
94.02940264576348
 20
-145.2121527414747
 30
0.0
 10
94.02940264576348
 20
-145.2121527414747
 30
0.0
  0
SPLINE
  5
4C1
330
4BC
100
AcDbEntity
  8
Capa 1
370
     0
100
AcDbSpline
210
0.0
220
0.0
230
1.0
 70
    11
 71
     3
 72
    20
 73
    16
 74
     0
 42
0.0000000001
 43
0.0000000001
 40
0.0
 40
0.0
 40
0.0
 40
0.0
 40
1.0
 40
1.0
 40
1.0
 40
2.0
 40
2.0
 40
2.0
 40
3.0
 40
3.0
 40
3.0
 40
4.0
 40
4.0
 40
4.0
 40
5.0
 40
5.0
 40
5.0
 40
5.0
 10
93.82889808852195
 20
-145.2417805626479
 30
0.0
 10
93.89642196003284
 20
-145.2348903716774
 30
0.0
 10
93.96291230289816
 20
-145.2252441043187
 30
0.0
 10
94.02940264576348
 20
-145.2121527414747
 30
0.0
 10
94.02940264576348
 20
-145.2121527414747
 30
0.0
 10
94.02940264576348
 20
-144.5238226635218
 30
0.0
 10
94.02940264576348
 20
-144.5238226635218
 30
0.0
 10
94.02940264576348
 20
-144.5238226635218
 30
0.0
 10
93.82889808852195
 20
-144.5238226635218
 30
0.0
 10
93.82889808852195
 20
-144.5238226635218
 30
0.0
 10
93.82889808852195
 20
-144.5238226635218
 30
0.0
 10
93.82889808852195
 20
-145.2417805626479
 30
0.0
 10
93.82889808852195
 20
-145.2417805626479
 30
0.0
 10
93.82889808852195
 20
-145.2417805626479
 30
0.0
 10
93.82889808852195
 20
-145.2417805626479
 30
0.0
 10
93.82889808852195
 20
-145.2417805626479
 30
0.0
  0
SPLINE
  5
4C2
330
4BC
100
AcDbEntity
  8
Capa 1
370
     0
100
AcDbSpline
210
0.0
220
0.0
230
1.0
 70
    11
 71
     3
 72
    20
 73
    16
 74
     0
 42
0.0000000001
 43
0.0000000001
 40
0.0
 40
0.0
 40
0.0
 40
0.0
 40
1.0
 40
1.0
 40
1.0
 40
2.0
 40
2.0
 40
2.0
 40
3.0
 40
3.0
 40
3.0
 40
4.0
 40
4.0
 40
4.0
 40
5.0
 40
5.0
 40
5.0
 40
5.0
 10
92.22968476426897
 20
-145.1081108578202
 30
0.0
 10
92.29583059758576
 20
-145.0957085140733
 30
0.0
 10
92.36232094045108
 20
-145.0881293040057
 30
0.0
 10
92.42950030241346
 20
-145.0846842085205
 30
0.0
 10
92.42950030241346
 20
-145.0846842085205
 30
0.0
 10
92.42950030241346
 20
-144.5238226635218
 30
0.0
 10
92.42950030241346
 20
-144.5238226635218
 30
0.0
 10
92.42950030241346
 20
-144.5238226635218
 30
0.0
 10
92.22968476426897
 20
-144.5238226635218
 30
0.0
 10
92.22968476426897
 20
-144.5238226635218
 30
0.0
 10
92.22968476426897
 20
-144.5238226635218
 30
0.0
 10
92.22968476426897
 20
-145.1081108578202
 30
0.0
 10
92.22968476426897
 20
-145.1081108578202
 30
0.0
 10
92.22968476426897
 20
-145.1081108578202
 30
0.0
 10
92.22968476426897
 20
-145.1081108578202
 30
0.0
 10
92.22968476426897
 20
-145.1081108578202
 30
0.0
  0
SPLINE
  5
4C3
330
4BC
100
AcDbEntity
  8
Capa 1
370
     0
100
AcDbSpline
210
0.0
220
0.0
230
1.0
 70
    11
 71
     3
 72
    20
 73
    16
 74
     0
 42
0.0000000001
 43
0.0000000001
 40
0.0
 40
0.0
 40
0.0
 40
0.0
 40
1.0
 40
1.0
 40
1.0
 40
2.0
 40
2.0
 40
2.0
 40
3.0
 40
3.0
 40
3.0
 40
4.0
 40
4.0
 40
4.0
 40
5.0
 40
5.0
 40
5.0
 40
5.0
 10
91.7790662747983
 20
-145.2486707536184
 30
0.0
 10
91.92169322788763
 20
-145.1856255062383
 30
0.0
 10
92.07396644833568
 20
-145.1356716217022
 30
0.0
 10
92.22968476426897
 20
-145.1081108578202
 30
0.0
 10
92.22968476426897
 20
-145.1081108578202
 30
0.0
 10
92.22968476426897
 20
-144.5238226635218
 30
0.0
 10
92.22968476426897
 20
-144.5238226635218
 30
0.0
 10
92.22968476426897
 20
-144.5238226635218
 30
0.0
 10
91.8796630629676
 20
-144.5238226635218
 30
0.0
 10
91.8796630629676
 20
-144.5238226635218
 30
0.0
 10
91.8796630629676
 20
-144.5238226635218
 30
0.0
 10
91.8796630629676
 20
-145.2076741173439
 30
0.0
 10
91.8796630629676
 20
-145.2076741173439
 30
0.0
 10
91.8796630629676
 20
-145.2076741173439
 30
0.0
 10
91.7790662747983
 20
-145.2486707536184
 30
0.0
 10
91.7790662747983
 20
-145.2486707536184
 30
0.0
  0
POLYLINE
  5
4C4
330
4BC
100
AcDbEntity
  8
Capa 1
370
     0
100
AcDb2dPolyline
 66
     1
 10
0.0
 20
0.0
 30
0.0
  0
VERTEX
  5
4C5
330
4C4
100
AcDbEntity
  8
Capa 1
370
     0
100
AcDbVertex
100
AcDb2dVertex
 10
91.8796630629676
 20
-144.5558620515347
 30
0.0
  0
VERTEX
  5
4C6
330
4C4
100
AcDbEntity
  8
Capa 1
370
     0
100
AcDbVertex
100
AcDb2dVertex
 10
91.91135794143189
 20
-144.5238226635218
 30
0.0
  0
SEQEND
  5
4C7
330
4C4
100
AcDbEntity
  8
Capa 1
370
     0
  0
POLYLINE
  5
4C8
330
4BC
100
AcDbEntity
  8
Capa 1
370
     0
100
AcDb2dPolyline
 66
     1
 10
0.0
 20
0.0
 30
0.0
  0
VERTEX
  5
4C9
330
4C8
100
AcDbEntity
  8
Capa 1
370
     0
100
AcDbVertex
100
AcDb2dVertex
 10
91.8796630629676
 20
-144.8924478804436
 30
0.0
  0
VERTEX
  5
4CA
330
4C8
100
AcDbEntity
  8
Capa 1
370
     0
100
AcDbVertex
100
AcDb2dVertex
 10
92.22968476426897
 20
-144.5424261791422
 30
0.0
  0
SEQEND
  5
4CB
330
4C8
100
AcDbEntity
  8
Capa 1
370
     0
  0
POLYLINE
  5
4CC
330
4BC
100
AcDbEntity
  8
Capa 1
370
     0
100
AcDb2dPolyline
 66
     1
 10
0.0
 20
0.0
 30
0.0
  0
VERTEX
  5
4CD
330
4CC
100
AcDbEntity
  8
Capa 1
370
     0
100
AcDbVertex
100
AcDb2dVertex
 10
92.22968476426897
 20
-144.5424261791422
 30
0.0
  0
VERTEX
  5
4CE
330
4CC
100
AcDbEntity
  8
Capa 1
370
     0
100
AcDbVertex
100
AcDb2dVertex
 10
92.24828827988932
 20
-144.5238226635218
 30
0.0
  0
SEQEND
  5
4CF
330
4CC
100
AcDbEntity
  8
Capa 1
370
     0
  0
POLYLINE
  5
4D0
330
4BC
100
AcDbEntity
  8
Capa 1
370
     0
100
AcDb2dPolyline
 66
     1
 10
0.0
 20
0.0
 30
0.0
  0
VERTEX
  5
4D1
330
4D0
100
AcDbEntity
  8
Capa 1
370
     0
100
AcDbVertex
100
AcDb2dVertex
 10
91.89654403084532
 20
-145.2121527414747
 30
0.0
  0
VERTEX
  5
4D2
330
4D0
100
AcDbEntity
  8
Capa 1
370
     0
100
AcDbVertex
100
AcDb2dVertex
 10
92.22968476426897
 20
-144.8790120080511
 30
0.0
  0
SEQEND
  5
4D3
330
4D0
100
AcDbEntity
  8
Capa 1
370
     0
  0
POLYLINE
  5
4D4
330
4BC
100
AcDbEntity
  8
Capa 1
370
     0
100
AcDb2dPolyline
 66
     1
 10
0.0
 20
0.0
 30
0.0
  0
VERTEX
  5
4D5
330
4D4
100
AcDbEntity
  8
Capa 1
370
     0
100
AcDbVertex
100
AcDb2dVertex
 10
92.22968476426897
 20
-144.8790120080511
 30
0.0
  0
VERTEX
  5
4D6
330
4D4
100
AcDbEntity
  8
Capa 1
370
     0
100
AcDbVertex
100
AcDb2dVertex
 10
92.42950030241346
 20
-144.6795409794551
 30
0.0
  0
SEQEND
  5
4D7
330
4D4
100
AcDbEntity
  8
Capa 1
370
     0
  0
POLYLINE
  5
4D8
330
4BC
100
AcDbEntity
  8
Capa 1
370
     0
100
AcDb2dPolyline
 66
     1
 10
0.0
 20
0.0
 30
0.0
  0
VERTEX
  5
4D9
330
4D8
100
AcDbEntity
  8
Capa 1
370
     0
100
AcDbVertex
100
AcDb2dVertex
 10
92.35164114444682
 20
-145.0932969472336
 30
0.0
  0
VERTEX
  5
4DA
330
4D8
100
AcDbEntity
  8
Capa 1
370
     0
100
AcDbVertex
100
AcDb2dVertex
 10
92.42950030241346
 20
-145.0157822988155
 30
0.0
  0
SEQEND
  5
4DB
330
4D8
100
AcDbEntity
  8
Capa 1
370
     0
  0
POLYLINE
  5
4DC
330
4BC
100
AcDbEntity
  8
Capa 1
370
     0
100
AcDb2dPolyline
 66
     1
 10
0.0
 20
0.0
 30
0.0
  0
VERTEX
  5
4DD
330
4DC
100
AcDbEntity
  8
Capa 1
370
     0
100
AcDbVertex
100
AcDb2dVertex
 10
93.82889808852195
 20
-144.6261419994337
 30
0.0
  0
VERTEX
  5
4DE
330
4DC
100
AcDbEntity
  8
Capa 1
370
     0
100
AcDbVertex
100
AcDb2dVertex
 10
93.9315619339824
 20
-144.5238226635218
 30
0.0
  0
SEQEND
  5
4DF
330
4DC
100
AcDbEntity
  8
Capa 1
370
     0
  0
POLYLINE
  5
4E0
330
4BC
100
AcDbEntity
  8
Capa 1
370
     0
100
AcDb2dPolyline
 66
     1
 10
0.0
 20
0.0
 30
0.0
  0
VERTEX
  5
4E1
330
4E0
100
AcDbEntity
  8
Capa 1
370
     0
100
AcDbVertex
100
AcDb2dVertex
 10
93.82889808852195
 20
-144.9630723378912
 30
0.0
  0
VERTEX
  5
4E2
330
4E0
100
AcDbEntity
  8
Capa 1
370
     0
100
AcDbVertex
100
AcDb2dVertex
 10
94.02940264576348
 20
-144.7629122901982
 30
0.0
  0
SEQEND
  5
4E3
330
4E0
100
AcDbEntity
  8
Capa 1
370
     0
  0
POLYLINE
  5
4E4
330
4BC
100
AcDbEntity
  8
Capa 1
370
     0
100
AcDb2dPolyline
 66
     1
 10
0.0
 20
0.0
 30
0.0
  0
VERTEX
  5
4E5
330
4E4
100
AcDbEntity
  8
Capa 1
370
     0
100
AcDbVertex
100
AcDb2dVertex
 10
94.02940264576348
 20
-144.7629122901982
 30
0.0
  0
VERTEX
  5
4E6
330
4E4
100
AcDbEntity
  8
Capa 1
370
     0
100
AcDbVertex
100
AcDb2dVertex
 10
94.26849227243983
 20
-144.5238226635218
 30
0.0
  0
SEQEND
  5
4E7
330
4E4
100
AcDbEntity
  8
Capa 1
370
     0
  0
POLYLINE
  5
4E8
330
4BC
100
AcDbEntity
  8
Capa 1
370
     0
100
AcDb2dPolyline
 66
     1
 10
0.0
 20
0.0
 30
0.0
  0
VERTEX
  5
4E9
330
4E8
100
AcDbEntity
  8
Capa 1
370
     0
100
AcDbVertex
100
AcDb2dVertex
 10
93.89745548867842
 20
-145.2321342952892
 30
0.0
  0
VERTEX
  5
4EA
330
4E8
100
AcDbEntity
  8
Capa 1
370
     0
100
AcDbVertex
100
AcDb2dVertex
 10
94.02940264576348
 20
-145.0998426286556
 30
0.0
  0
SEQEND
  5
4EB
330
4E8
100
AcDbEntity
  8
Capa 1
370
     0
  0
POLYLINE
  5
4EC
330
4BC
100
AcDbEntity
  8
Capa 1
370
     0
100
AcDb2dPolyline
 66
     1
 10
0.0
 20
0.0
 30
0.0
  0
VERTEX
  5
4ED
330
4EC
100
AcDbEntity
  8
Capa 1
370
     0
100
AcDbVertex
100
AcDb2dVertex
 10
94.02940264576348
 20
-145.0998426286556
 30
0.0
  0
VERTEX
  5
4EE
330
4EC
100
AcDbEntity
  8
Capa 1
370
     0
100
AcDbVertex
100
AcDb2dVertex
 10
94.38011336616192
 20
-144.7498209273542
 30
0.0
  0
SEQEND
  5
4EF
330
4EC
100
AcDbEntity
  8
Capa 1
370
     0
  0
POLYLINE
  5
4F0
330
4BC
100
AcDbEntity
  8
Capa 1
370
     0
100
AcDb2dPolyline
 66
     1
 10
0.0
 20
0.0
 30
0.0
  0
VERTEX
  5
4F1
330
4F0
100
AcDbEntity
  8
Capa 1
370
     0
100
AcDbVertex
100
AcDb2dVertex
 10
94.32809242433464
 20
-145.1373941694448
 30
0.0
  0
VERTEX
  5
4F2
330
4F0
100
AcDbEntity
  8
Capa 1
370
     0
100
AcDbVertex
100
AcDb2dVertex
 10
94.38011336616192
 20
-145.0867512658116
 30
0.0
  0
SEQEND
  5
4F3
330
4F0
100
AcDbEntity
  8
Capa 1
370
     0
  0
ENDBLK
  5
4BF
330
4BC
100
AcDbEntity
  8
0
100
AcDbBlockEnd
  0
BLOCK
  5
4F6
330
4F4
100
AcDbEntity
  8
0
100
AcDbBlockBegin
  2
block 141
 70
     0
 71
     0
 10
0.0
 20
0.0
 30
0.0
  3
block 141
  1

  0
POLYLINE
  5
4F8
330
4F4
100
AcDbEntity
  8
Capa 1
 62
   253
420
 11381932
370
    15
100
AcDb2dPolyline
 66
     1
 10
0.0
 20
0.0
 30
0.0
  0
VERTEX
  5
4F9
330
4F8
100
AcDbEntity
  8
Capa 1
 62
   253
420
 11381932
370
    15
100
AcDbVertex
100
AcDb2dVertex
 10
92.22934025472044
 20
-144.5238226635218
 30
0.0
  0
VERTEX
  5
4FA
330
4F8
100
AcDbEntity
  8
Capa 1
 62
   253
420
 11381932
370
    15
100
AcDbVertex
100
AcDb2dVertex
 10
92.22934025472044
 20
-145.1077663482717
 30
0.0
  0
SEQEND
  5
4FB
330
4F8
100
AcDbEntity
  8
Capa 1
370
    15
  0
ENDBLK
  5
4F7
330
4F4
100
AcDbEntity
  8
0
100
AcDbBlockEnd
  0
BLOCK
  5
4FE
330
4FC
100
AcDbEntity
  8
0
100
AcDbBlockBegin
  2
block 142
 70
     0
 71
     0
 10
0.0
 20
0.0
 30
0.0
  3
block 142
  1

  0
POLYLINE
  5
500
330
4FC
100
AcDbEntity
  8
Capa 1
 62
   253
420
 11381932
370
    15
100
AcDb2dPolyline
 66
     1
 10
0.0
 20
0.0
 30
0.0
  0
VERTEX
  5
501
330
500
100
AcDbEntity
  8
Capa 1
 62
   253
420
 11381932
370
    15
100
AcDbVertex
100
AcDb2dVertex
 10
94.02940264576348
 20
-144.5238226635218
 30
0.0
  0
VERTEX
  5
502
330
500
100
AcDbEntity
  8
Capa 1
 62
   253
420
 11381932
370
    15
100
AcDbVertex
100
AcDb2dVertex
 10
94.02940264576348
 20
-145.2121527414747
 30
0.0
  0
SEQEND
  5
503
330
500
100
AcDbEntity
  8
Capa 1
370
    15
  0
ENDBLK
  5
4FF
330
4FC
100
AcDbEntity
  8
0
100
AcDbBlockEnd
  0
BLOCK
  5
506
330
504
100
AcDbEntity
  8
0
100
AcDbBlockBegin
  2
block 143
 70
     0
 71
     0
 10
0.0
 20
0.0
 30
0.0
  3
block 143
  1

  0
POLYLINE
  5
508
330
504
100
AcDbEntity
  8
Capa 1
 62
   253
420
 11381932
370
    15
100
AcDb2dPolyline
 66
     1
 10
0.0
 20
0.0
 30
0.0
  0
VERTEX
  5
509
330
508
100
AcDbEntity
  8
Capa 1
 62
   253
420
 11381932
370
    15
100
AcDbVertex
100
AcDb2dVertex
 10
92.42950030241346
 20
-144.5238226635218
 30
0.0
  0
VERTEX
  5
50A
330
508
100
AcDbEntity
  8
Capa 1
 62
   253
420
 11381932
370
    15
100
AcDbVertex
100
AcDb2dVertex
 10
92.42950030241346
 20
-145.0846842085205
 30
0.0
  0
SEQEND
  5
50B
330
508
100
AcDbEntity
  8
Capa 1
370
    15
  0
ENDBLK
  5
507
330
504
100
AcDbEntity
  8
0
100
AcDbBlockEnd
  0
BLOCK
  5
50E
330
50C
100
AcDbEntity
  8
0
100
AcDbBlockBegin
  2
block 144
 70
     0
 71
     0
 10
0.0
 20
0.0
 30
0.0
  3
block 144
  1

  0
POLYLINE
  5
510
330
50C
100
AcDbEntity
  8
Capa 1
 62
   253
420
 11381932
370
    15
100
AcDb2dPolyline
 66
     1
 10
0.0
 20
0.0
 30
0.0
  0
VERTEX
  5
511
330
510
100
AcDbEntity
  8
Capa 1
 62
   253
420
 11381932
370
    15
100
AcDbVertex
100
AcDb2dVertex
 10
93.82958710761899
 20
-144.5238226635218
 30
0.0
  0
VERTEX
  5
512
330
510
100
AcDbEntity
  8
Capa 1
 62
   253
420
 11381932
370
    15
100
AcDbVertex
100
AcDb2dVertex
 10
93.82958710761899
 20
-145.2417805626479
 30
0.0
  0
SEQEND
  5
513
330
510
100
AcDbEntity
  8
Capa 1
370
    15
  0
ENDBLK
  5
50F
330
50C
100
AcDbEntity
  8
0
100
AcDbBlockEnd
  0
BLOCK
  5
516
330
514
100
AcDbEntity
  8
0
100
AcDbBlockBegin
  2
block 145
 70
     0
 71
     0
 10
0.0
 20
0.0
 30
0.0
  3
block 145
  1

  0
POLYLINE
  5
518
330
514
100
AcDbEntity
  8
Capa 1
 62
   253
420
 11381932
370
    15
100
AcDb2dPolyline
 66
     1
 10
0.0
 20
0.0
 30
0.0
  0
VERTEX
  5
519
330
518
100
AcDbEntity
  8
Capa 1
 62
   253
420
 11381932
370
    15
100
AcDbVertex
100
AcDb2dVertex
 10
89.46120603232221
 20
-149.4737358567288
 30
0.0
  0
VERTEX
  5
51A
330
518
100
AcDbEntity
  8
Capa 1
 62
   253
420
 11381932
370
    15
100
AcDbVertex
100
AcDb2dVertex
 10
89.42933889908365
 20
-149.4420409782645
 30
0.0
  0
SEQEND
  5
51B
330
518
100
AcDbEntity
  8
Capa 1
370
    15
  0
ENDBLK
  5
517
330
514
100
AcDbEntity
  8
0
100
AcDbBlockEnd
  0
BLOCK
  5
51E
330
51C
100
AcDbEntity
  8
0
100
AcDbBlockBegin
  2
block 146
 70
     0
 71
     0
 10
0.0
 20
0.0
 30
0.0
  3
block 146
  1

  0
POLYLINE
  5
520
330
51C
100
AcDbEntity
  8
Capa 1
 62
   253
420
 11381932
370
    15
100
AcDb2dPolyline
 66
     1
 10
0.0
 20
0.0
 30
0.0
  0
VERTEX
  5
521
330
520
100
AcDbEntity
  8
Capa 1
 62
   253
420
 11381932
370
    15
100
AcDbVertex
100
AcDb2dVertex
 10
89.79796411600537
 20
-149.4737358567288
 30
0.0
  0
VERTEX
  5
522
330
520
100
AcDbEntity
  8
Capa 1
 62
   253
420
 11381932
370
    15
100
AcDbVertex
100
AcDb2dVertex
 10
89.44794241470399
 20
-149.1237141554274
 30
0.0
  0
SEQEND
  5
523
330
520
100
AcDbEntity
  8
Capa 1
370
    15
  0
ENDBLK
  5
51F
330
51C
100
AcDbEntity
  8
0
100
AcDbBlockEnd
  0
BLOCK
  5
526
330
524
100
AcDbEntity
  8
0
100
AcDbBlockBegin
  2
block 147
 70
     0
 71
     0
 10
0.0
 20
0.0
 30
0.0
  3
block 147
  1

  0
POLYLINE
  5
528
330
524
100
AcDbEntity
  8
Capa 1
 62
   253
420
 11381932
370
    15
100
AcDb2dPolyline
 66
     1
 10
0.0
 20
0.0
 30
0.0
  0
VERTEX
  5
529
330
528
100
AcDbEntity
  8
Capa 1
 62
   253
420
 11381932
370
    15
100
AcDbVertex
100
AcDb2dVertex
 10
90.09992673528753
 20
-149.4389403923278
 30
0.0
  0
VERTEX
  5
52A
330
528
100
AcDbEntity
  8
Capa 1
 62
   253
420
 11381932
370
    15
100
AcDbVertex
100
AcDb2dVertex
 10
89.78470049838717
 20
-149.1237141554274
 30
0.0
  0
SEQEND
  5
52B
330
528
100
AcDbEntity
  8
Capa 1
370
    15
  0
ENDBLK
  5
527
330
524
100
AcDbEntity
  8
0
100
AcDbBlockEnd
  0
BLOCK
  5
52E
330
52C
100
AcDbEntity
  8
0
100
AcDbBlockBegin
  2
block 148
 70
     0
 71
     0
 10
0.0
 20
0.0
 30
0.0
  3
block 148
  1

  0
POLYLINE
  5
530
330
52C
100
AcDbEntity
  8
Capa 1
 62
   253
420
 11381932
370
    15
100
AcDb2dPolyline
 66
     1
 10
0.0
 20
0.0
 30
0.0
  0
VERTEX
  5
531
330
530
100
AcDbEntity
  8
Capa 1
 62
   253
420
 11381932
370
    15
100
AcDbVertex
100
AcDb2dVertex
 10
89.78470049838717
 20
-149.1237141554274
 30
0.0
  0
VERTEX
  5
532
330
530
100
AcDbEntity
  8
Capa 1
 62
   253
420
 11381932
370
    15
100
AcDbVertex
100
AcDb2dVertex
 10
89.5847127054684
 20
-148.9238986172829
 30
0.0
  0
SEQEND
  5
533
330
530
100
AcDbEntity
  8
Capa 1
370
    15
  0
ENDBLK
  5
52F
330
52C
100
AcDbEntity
  8
0
100
AcDbBlockEnd
  0
BLOCK
  5
536
330
534
100
AcDbEntity
  8
0
100
AcDbBlockBegin
  2
block 149
 70
     0
 71
     0
 10
0.0
 20
0.0
 30
0.0
  3
block 149
  1

  0
POLYLINE
  5
538
330
534
100
AcDbEntity
  8
Capa 1
 62
   253
420
 11381932
370
    15
100
AcDb2dPolyline
 66
     1
 10
0.0
 20
0.0
 30
0.0
  0
VERTEX
  5
539
330
538
100
AcDbEntity
  8
Capa 1
 62
   253
420
 11381932
370
    15
100
AcDbVertex
100
AcDb2dVertex
 10
89.99571259685871
 20
-148.9979681702158
 30
0.0
  0
VERTEX
  5
53A
330
538
100
AcDbEntity
  8
Capa 1
 62
   253
420
 11381932
370
    15
100
AcDbVertex
100
AcDb2dVertex
 10
89.92147078915158
 20
-148.9238986172829
 30
0.0
  0
SEQEND
  5
53B
330
538
100
AcDbEntity
  8
Capa 1
370
    15
  0
ENDBLK
  5
537
330
534
100
AcDbEntity
  8
0
100
AcDbBlockEnd
  0
BLOCK
  5
53E
330
53C
100
AcDbEntity
  8
0
100
AcDbBlockBegin
  2
block 150
 70
     0
 71
     0
 10
0.0
 20
0.0
 30
0.0
  3
block 150
  1

  0
POLYLINE
  5
540
330
53C
100
AcDbEntity
  8
Capa 1
 62
   253
420
 11381932
370
    15
100
AcDb2dPolyline
 66
     1
 10
0.0
 20
0.0
 30
0.0
  0
VERTEX
  5
541
330
540
100
AcDbEntity
  8
Capa 1
 62
   253
420
 11381932
370
    15
100
AcDbVertex
100
AcDb2dVertex
 10
89.53183048976983
 20
-147.5238118120774
 30
0.0
  0
VERTEX
  5
542
330
540
100
AcDbEntity
  8
Capa 1
 62
   253
420
 11381932
370
    15
100
AcDbVertex
100
AcDb2dVertex
 10
89.42933889908365
 20
-147.4211479666169
 30
0.0
  0
SEQEND
  5
543
330
540
100
AcDbEntity
  8
Capa 1
370
    15
  0
ENDBLK
  5
53F
330
53C
100
AcDbEntity
  8
0
100
AcDbBlockEnd
  0
BLOCK
  5
546
330
544
100
AcDbEntity
  8
0
100
AcDbBlockBegin
  2
block 151
 70
     0
 71
     0
 10
0.0
 20
0.0
 30
0.0
  3
block 151
  1

  0
POLYLINE
  5
548
330
544
100
AcDbEntity
  8
Capa 1
 62
   253
420
 11381932
370
    15
100
AcDb2dPolyline
 66
     1
 10
0.0
 20
0.0
 30
0.0
  0
VERTEX
  5
549
330
548
100
AcDbEntity
  8
Capa 1
 62
   253
420
 11381932
370
    15
100
AcDbVertex
100
AcDb2dVertex
 10
89.868588573453
 20
-147.5238118120774
 30
0.0
  0
VERTEX
  5
54A
330
548
100
AcDbEntity
  8
Capa 1
 62
   253
420
 11381932
370
    15
100
AcDbVertex
100
AcDb2dVertex
 10
89.66860078053425
 20
-147.3239962739329
 30
0.0
  0
SEQEND
  5
54B
330
548
100
AcDbEntity
  8
Capa 1
370
    15
  0
ENDBLK
  5
547
330
544
100
AcDbEntity
  8
0
100
AcDbBlockEnd
  0
BLOCK
  5
54E
330
54C
100
AcDbEntity
  8
0
100
AcDbBlockBegin
  2
block 152
 70
     0
 71
     0
 10
0.0
 20
0.0
 30
0.0
  3
block 152
  1

  0
POLYLINE
  5
550
330
54C
100
AcDbEntity
  8
Capa 1
 62
   253
420
 11381932
370
    15
100
AcDb2dPolyline
 66
     1
 10
0.0
 20
0.0
 30
0.0
  0
VERTEX
  5
551
330
550
100
AcDbEntity
  8
Capa 1
 62
   253
420
 11381932
370
    15
100
AcDbVertex
100
AcDb2dVertex
 10
89.66860078053425
 20
-147.3239962739329
 30
0.0
  0
VERTEX
  5
552
330
550
100
AcDbEntity
  8
Capa 1
 62
   253
420
 11381932
370
    15
100
AcDbVertex
100
AcDb2dVertex
 10
89.42933889908365
 20
-147.084562137708
 30
0.0
  0
SEQEND
  5
553
330
550
100
AcDbEntity
  8
Capa 1
370
    15
  0
ENDBLK
  5
54F
330
54C
100
AcDbEntity
  8
0
100
AcDbBlockEnd
  0
BLOCK
  5
556
330
554
100
AcDbEntity
  8
0
100
AcDbBlockBegin
  2
block 153
 70
     0
 71
     0
 10
0.0
 20
0.0
 30
0.0
  3
block 153
  1

  0
POLYLINE
  5
558
330
554
100
AcDbEntity
  8
Capa 1
 62
   253
420
 11381932
370
    15
100
AcDb2dPolyline
 66
     1
 10
0.0
 20
0.0
 30
0.0
  0
VERTEX
  5
559
330
558
100
AcDbEntity
  8
Capa 1
 62
   253
420
 11381932
370
    15
100
AcDbVertex
100
AcDb2dVertex
 10
90.13988984291642
 20
-147.4583549978576
 30
0.0
  0
VERTEX
  5
55A
330
558
100
AcDbEntity
  8
Capa 1
 62
   253
420
 11381932
370
    15
100
AcDbVertex
100
AcDb2dVertex
 10
90.00535886421741
 20
-147.3239962739329
 30
0.0
  0
SEQEND
  5
55B
330
558
100
AcDbEntity
  8
Capa 1
370
    15
  0
ENDBLK
  5
557
330
554
100
AcDbEntity
  8
0
100
AcDbBlockEnd
  0
BLOCK
  5
55E
330
55C
100
AcDbEntity
  8
0
100
AcDbBlockBegin
  2
block 154
 70
     0
 71
     0
 10
0.0
 20
0.0
 30
0.0
  3
block 154
  1

  0
POLYLINE
  5
560
330
55C
100
AcDbEntity
  8
Capa 1
 62
   253
420
 11381932
370
    15
100
AcDb2dPolyline
 66
     1
 10
0.0
 20
0.0
 30
0.0
  0
VERTEX
  5
561
330
560
100
AcDbEntity
  8
Capa 1
 62
   253
420
 11381932
370
    15
100
AcDbVertex
100
AcDb2dVertex
 10
90.00535886421741
 20
-147.3239962739329
 30
0.0
  0
VERTEX
  5
562
330
560
100
AcDbEntity
  8
Capa 1
 62
   253
420
 11381932
370
    15
100
AcDbVertex
100
AcDb2dVertex
 10
89.65533716291603
 20
-146.9739745726315
 30
0.0
  0
SEQEND
  5
563
330
560
100
AcDbEntity
  8
Capa 1
370
    15
  0
ENDBLK
  5
55F
330
55C
100
AcDbEntity
  8
0
100
AcDbBlockEnd
  0
BLOCK
  5
566
330
564
100
AcDbEntity
  8
0
100
AcDbBlockBegin
  2
block 155
 70
     0
 71
     0
 10
0.0
 20
0.0
 30
0.0
  3
block 155
  1

  0
POLYLINE
  5
568
330
564
100
AcDbEntity
  8
Capa 1
 62
   253
420
 11381932
370
    15
100
AcDb2dPolyline
 66
     1
 10
0.0
 20
0.0
 30
0.0
  0
VERTEX
  5
569
330
568
100
AcDbEntity
  8
Capa 1
 62
   253
420
 11381932
370
    15
100
AcDbVertex
100
AcDb2dVertex
 10
89.42933889908365
 20
-149.1237141554274
 30
0.0
  0
VERTEX
  5
56A
330
568
100
AcDbEntity
  8
Capa 1
 62
   253
420
 11381932
370
    15
100
AcDbVertex
100
AcDb2dVertex
 10
90.01345483860776
 20
-149.1237141554274
 30
0.0
  0
SEQEND
  5
56B
330
568
100
AcDbEntity
  8
Capa 1
370
    15
  0
ENDBLK
  5
567
330
564
100
AcDbEntity
  8
0
100
AcDbBlockEnd
  0
BLOCK
  5
56E
330
56C
100
AcDbEntity
  8
0
100
AcDbBlockBegin
  2
block 156
 70
     0
 71
     0
 10
0.0
 20
0.0
 30
0.0
  3
block 156
  1

  0
POLYLINE
  5
570
330
56C
100
AcDbEntity
  8
Capa 1
 62
   253
420
 11381932
370
    15
100
AcDb2dPolyline
 66
     1
 10
0.0
 20
0.0
 30
0.0
  0
VERTEX
  5
571
330
570
100
AcDbEntity
  8
Capa 1
 62
   253
420
 11381932
370
    15
100
AcDbVertex
100
AcDb2dVertex
 10
89.42933889908365
 20
-147.3239962739329
 30
0.0
  0
VERTEX
  5
572
330
570
100
AcDbEntity
  8
Capa 1
 62
   253
420
 11381932
370
    15
100
AcDbVertex
100
AcDb2dVertex
 10
90.11766897703656
 20
-147.3239962739329
 30
0.0
  0
SEQEND
  5
573
330
570
100
AcDbEntity
  8
Capa 1
370
    15
  0
ENDBLK
  5
56F
330
56C
100
AcDbEntity
  8
0
100
AcDbBlockEnd
  0
BLOCK
  5
576
330
574
100
AcDbEntity
  8
0
100
AcDbBlockBegin
  2
block 157
 70
     0
 71
     0
 10
0.0
 20
0.0
 30
0.0
  3
block 157
  1

  0
POLYLINE
  5
578
330
574
100
AcDbEntity
  8
Capa 1
 62
   253
420
 11381932
370
    15
100
AcDb2dPolyline
 66
     1
 10
0.0
 20
0.0
 30
0.0
  0
VERTEX
  5
579
330
578
100
AcDbEntity
  8
Capa 1
 62
   253
420
 11381932
370
    15
100
AcDbVertex
100
AcDb2dVertex
 10
89.42933889908365
 20
-148.9238986172829
 30
0.0
  0
VERTEX
  5
57A
330
578
100
AcDbEntity
  8
Capa 1
 62
   253
420
 11381932
370
    15
100
AcDbVertex
100
AcDb2dVertex
 10
89.99020044408232
 20
-148.9238986172829
 30
0.0
  0
SEQEND
  5
57B
330
578
100
AcDbEntity
  8
Capa 1
370
    15
  0
ENDBLK
  5
577
330
574
100
AcDbEntity
  8
0
100
AcDbBlockEnd
  0
BLOCK
  5
57E
330
57C
100
AcDbEntity
  8
0
100
AcDbBlockBegin
  2
block 158
 70
     0
 71
     0
 10
0.0
 20
0.0
 30
0.0
  3
block 158
  1

  0
POLYLINE
  5
580
330
57C
100
AcDbEntity
  8
Capa 1
 62
   253
420
 11381932
370
    15
100
AcDb2dPolyline
 66
     1
 10
0.0
 20
0.0
 30
0.0
  0
VERTEX
  5
581
330
580
100
AcDbEntity
  8
Capa 1
 62
   253
420
 11381932
370
    15
100
AcDbVertex
100
AcDb2dVertex
 10
89.42933889908365
 20
-147.5238118120774
 30
0.0
  0
VERTEX
  5
582
330
580
100
AcDbEntity
  8
Capa 1
 62
   253
420
 11381932
370
    15
100
AcDbVertex
100
AcDb2dVertex
 10
90.14764130775824
 20
-147.5238118120774
 30
0.0
  0
SEQEND
  5
583
330
580
100
AcDbEntity
  8
Capa 1
370
    15
  0
ENDBLK
  5
57F
330
57C
100
AcDbEntity
  8
0
100
AcDbBlockEnd
  0
BLOCK
  5
586
330
584
100
AcDbEntity
  8
0
100
AcDbBlockBegin
  2
block 159
 70
     0
 71
     0
 10
0.0
 20
0.0
 30
0.0
  3
block 159
  1

  0
SPLINE
  5
588
330
584
100
AcDbEntity
  8
Capa 1
370
     0
100
AcDbSpline
210
0.0
220
0.0
230
1.0
 70
    11
 71
     3
 72
    20
 73
    16
 74
     0
 42
0.0000000001
 43
0.0000000001
 40
0.0
 40
0.0
 40
0.0
 40
0.0
 40
1.0
 40
1.0
 40
1.0
 40
2.0
 40
2.0
 40
2.0
 40
3.0
 40
3.0
 40
3.0
 40
4.0
 40
4.0
 40
4.0
 40
5.0
 40
5.0
 40
5.0
 40
5.0
 10
96.11127384749996
 20
-148.9211425408947
 30
0.0
 10
96.11816403847047
 20
-148.9879773933086
 30
0.0
 10
96.12815481537768
 20
-149.0541232266254
 30
0.0
 10
96.14055715912458
 20
-149.1213025885877
 30
0.0
 10
96.14055715912458
 20
-149.1213025885877
 30
0.0
 10
96.82888723707751
 20
-149.1213025885877
 30
0.0
 10
96.82888723707751
 20
-149.1213025885877
 30
0.0
 10
96.82888723707751
 20
-149.1213025885877
 30
0.0
 10
96.82888723707751
 20
-148.9211425408947
 30
0.0
 10
96.82888723707751
 20
-148.9211425408947
 30
0.0
 10
96.82888723707751
 20
-148.9211425408947
 30
0.0
 10
96.11127384749996
 20
-148.9211425408947
 30
0.0
 10
96.11127384749996
 20
-148.9211425408947
 30
0.0
 10
96.11127384749996
 20
-148.9211425408947
 30
0.0
 10
96.11127384749996
 20
-148.9211425408947
 30
0.0
 10
96.11127384749996
 20
-148.9211425408947
 30
0.0
  0
SPLINE
  5
589
330
584
100
AcDbEntity
  8
Capa 1
370
     0
100
AcDbSpline
210
0.0
220
0.0
230
1.0
 70
    11
 71
     3
 72
    20
 73
    16
 74
     0
 42
0.0000000001
 43
0.0000000001
 40
0.0
 40
0.0
 40
0.0
 40
0.0
 40
1.0
 40
1.0
 40
1.0
 40
2.0
 40
2.0
 40
2.0
 40
3.0
 40
3.0
 40
3.0
 40
4.0
 40
4.0
 40
4.0
 40
5.0
 40
5.0
 40
5.0
 40
5.0
 10
96.24528806187618
 20
-147.3208956879962
 30
0.0
 10
96.25700138652603
 20
-147.3873860308615
 30
0.0
 10
96.26561412523915
 20
-147.4542208832754
 30
0.0
 10
96.26871471117587
 20
-147.5210557356892
 30
0.0
 10
96.26871471117587
 20
-147.5210557356892
 30
0.0
 10
96.82888723707751
 20
-147.5210557356892
 30
0.0
 10
96.82888723707751
 20
-147.5210557356892
 30
0.0
 10
96.82888723707751
 20
-147.5210557356892
 30
0.0
 10
96.82888723707751
 20
-147.3208956879962
 30
0.0
 10
96.82888723707751
 20
-147.3208956879962
 30
0.0
 10
96.82888723707751
 20
-147.3208956879962
 30
0.0
 10
96.24528806187618
 20
-147.3208956879962
 30
0.0
 10
96.24528806187618
 20
-147.3208956879962
 30
0.0
 10
96.24528806187618
 20
-147.3208956879962
 30
0.0
 10
96.24528806187618
 20
-147.3208956879962
 30
0.0
 10
96.24528806187618
 20
-147.3208956879962
 30
0.0
  0
SPLINE
  5
58A
330
584
100
AcDbEntity
  8
Capa 1
370
     0
100
AcDbSpline
210
0.0
220
0.0
230
1.0
 70
    11
 71
     3
 72
    20
 73
    16
 74
     0
 42
0.0000000001
 43
0.0000000001
 40
0.0
 40
0.0
 40
0.0
 40
0.0
 40
1.0
 40
1.0
 40
1.0
 40
2.0
 40
2.0
 40
2.0
 40
3.0
 40
3.0
 40
3.0
 40
4.0
 40
4.0
 40
4.0
 40
5.0
 40
5.0
 40
5.0
 40
5.0
 10
96.10472816607799
 20
-146.8713107271711
 30
0.0
 10
96.16673988481249
 20
-147.0142821898089
 30
0.0
 10
96.21772729799419
 20
-147.1662109007084
 30
0.0
 10
96.24528806187618
 20
-147.3208956879962
 30
0.0
 10
96.24528806187618
 20
-147.3208956879962
 30
0.0
 10
96.82888723707751
 20
-147.3208956879962
 30
0.0
 10
96.82888723707751
 20
-147.3208956879962
 30
0.0
 10
96.82888723707751
 20
-147.3208956879962
 30
0.0
 10
96.82888723707751
 20
-146.9739745726315
 30
0.0
 10
96.82888723707751
 20
-146.9739745726315
 30
0.0
 10
96.82888723707751
 20
-146.9739745726315
 30
0.0
 10
96.14641382144951
 20
-146.9739745726315
 30
0.0
 10
96.14641382144951
 20
-146.9739745726315
 30
0.0
 10
96.14641382144951
 20
-146.9739745726315
 30
0.0
 10
96.10472816607799
 20
-146.8713107271711
 30
0.0
 10
96.10472816607799
 20
-146.8713107271711
 30
0.0
  0
SPLINE
  5
58B
330
584
100
AcDbEntity
  8
Capa 1
370
     0
100
AcDbSpline
210
0.0
220
0.0
230
1.0
 70
    11
 71
     3
 72
   215
 73
   211
 74
     0
 42
0.0000000001
 43
0.0000000001
 40
0.0
 40
0.0
 40
0.0
 40
0.0
 40
1.0
 40
1.0
 40
1.0
 40
2.0
 40
2.0
 40
2.0
 40
3.0
 40
3.0
 40
3.0
 40
4.0
 40
4.0
 40
4.0
 40
5.0
 40
5.0
 40
5.0
 40
6.0
 40
6.0
 40
6.0
 40
7.0
 40
7.0
 40
7.0
 40
8.0
 40
8.0
 40
8.0
 40
9.0
 40
9.0
 40
9.0
 40
10.0
 40
10.0
 40
10.0
 40
11.0
 40
11.0
 40
11.0
 40
12.0
 40
12.0
 40
12.0
 40
13.0
 40
13.0
 40
13.0
 40
14.0
 40
14.0
 40
14.0
 40
15.0
 40
15.0
 40
15.0
 40
16.0
 40
16.0
 40
16.0
 40
17.0
 40
17.0
 40
17.0
 40
18.0
 40
18.0
 40
18.0
 40
19.0
 40
19.0
 40
19.0
 40
20.0
 40
20.0
 40
20.0
 40
21.0
 40
21.0
 40
21.0
 40
22.0
 40
22.0
 40
22.0
 40
23.0
 40
23.0
 40
23.0
 40
24.0
 40
24.0
 40
24.0
 40
25.0
 40
25.0
 40
25.0
 40
26.0
 40
26.0
 40
26.0
 40
27.0
 40
27.0
 40
27.0
 40
28.0
 40
28.0
 40
28.0
 40
29.0
 40
29.0
 40
29.0
 40
30.0
 40
30.0
 40
30.0
 40
31.0
 40
31.0
 40
31.0
 40
32.0
 40
32.0
 40
32.0
 40
33.0
 40
33.0
 40
33.0
 40
34.0
 40
34.0
 40
34.0
 40
35.0
 40
35.0
 40
35.0
 40
36.0
 40
36.0
 40
36.0
 40
37.0
 40
37.0
 40
37.0
 40
38.0
 40
38.0
 40
38.0
 40
39.0
 40
39.0
 40
39.0
 40
40.0
 40
40.0
 40
40.0
 40
41.0
 40
41.0
 40
41.0
 40
42.0
 40
42.0
 40
42.0
 40
43.0
 40
43.0
 40
43.0
 40
44.0
 40
44.0
 40
44.0
 40
45.0
 40
45.0
 40
45.0
 40
46.0
 40
46.0
 40
46.0
 40
47.0
 40
47.0
 40
47.0
 40
48.0
 40
48.0
 40
48.0
 40
49.0
 40
49.0
 40
49.0
 40
50.0
 40
50.0
 40
50.0
 40
51.0
 40
51.0
 40
51.0
 40
52.0
 40
52.0
 40
52.0
 40
53.0
 40
53.0
 40
53.0
 40
54.0
 40
54.0
 40
54.0
 40
55.0
 40
55.0
 40
55.0
 40
56.0
 40
56.0
 40
56.0
 40
57.0
 40
57.0
 40
57.0
 40
58.0
 40
58.0
 40
58.0
 40
59.0
 40
59.0
 40
59.0
 40
60.0
 40
60.0
 40
60.0
 40
61.0
 40
61.0
 40
61.0
 40
62.0
 40
62.0
 40
62.0
 40
63.0
 40
63.0
 40
63.0
 40
64.0
 40
64.0
 40
64.0
 40
65.0
 40
65.0
 40
65.0
 40
66.0
 40
66.0
 40
66.0
 40
67.0
 40
67.0
 40
67.0
 40
68.0
 40
68.0
 40
68.0
 40
69.0
 40
69.0
 40
69.0
 40
70.0
 40
70.0
 40
70.0
 40
70.0
 10
96.22668454625584
 20
-149.4737358567288
 30
0.0
 10
96.22668454625584
 20
-149.4737358567288
 30
0.0
 10
96.82888723707751
 20
-149.4737358567288
 30
0.0
 10
96.82888723707751
 20
-149.4737358567288
 30
0.0
 10
96.82888723707751
 20
-149.4737358567288
 30
0.0
 10
96.82888723707751
 20
-149.1213025885877
 30
0.0
 10
96.82888723707751
 20
-149.1213025885877
 30
0.0
 10
96.82888723707751
 20
-149.1213025885877
 30
0.0
 10
96.14055715912458
 20
-149.1213025885877
 30
0.0
 10
96.14055715912458
 20
-149.1213025885877
 30
0.0
 10
96.14159068777016
 20
-149.1244031745245
 30
0.0
 10
96.14159068777016
 20
-149.1264702318156
 30
0.0
 10
96.14159068777016
 20
-149.1264702318156
 30
0.0
 10
96.14262421641574
 20
-149.1299153273009
 30
0.0
 10
96.14331323551279
 20
-149.131293365495
 30
0.0
 10
96.14331323551279
 20
-149.131293365495
 30
0.0
 10
96.14331323551279
 20
-149.1354274800773
 30
0.0
 10
96.14469127370688
 20
-149.1368055182714
 30
0.0
 10
96.14469127370688
 20
-149.1368055182714
 30
0.0
 10
96.14469127370688
 20
-149.1402506137566
 30
0.0
 10
96.14538029280394
 20
-149.1423176710477
 30
0.0
 10
96.14538029280394
 20
-149.1423176710477
 30
0.0
 10
96.14538029280394
 20
-149.145762766533
 30
0.0
 10
96.14641382144951
 20
-149.1478298238242
 30
0.0
 10
96.14641382144951
 20
-149.1478298238242
 30
0.0
 10
96.14744735009509
 20
-149.1509304097609
 30
0.0
 10
96.14744735009509
 20
-149.152997467052
 30
0.0
 10
96.14744735009509
 20
-149.152997467052
 30
0.0
 10
96.14848087874066
 20
-149.1564425625373
 30
0.0
 10
96.14848087874066
 20
-149.1578206007314
 30
0.0
 10
96.14848087874066
 20
-149.1578206007314
 30
0.0
 10
96.14951440738623
 20
-149.1616102057652
 30
0.0
 10
96.14951440738623
 20
-149.1629882439593
 30
0.0
 10
96.14951440738623
 20
-149.1629882439593
 30
0.0
 10
96.15020342648329
 20
-149.1664333394445
 30
0.0
 10
96.15020342648329
 20
-149.1685003967357
 30
0.0
 10
96.15020342648329
 20
-149.1685003967357
 30
0.0
 10
96.15158146467739
 20
-149.1719454922209
 30
0.0
 10
96.15158146467739
 20
-149.1740125495121
 30
0.0
 10
96.15158146467739
 20
-149.1740125495121
 30
0.0
 10
96.15227048377443
 20
-149.1774576449973
 30
0.0
 10
96.15330401242001
 20
-149.1795247022885
 30
0.0
 10
96.15330401242001
 20
-149.1795247022885
 30
0.0
 10
96.15330401242001
 20
-149.1829697977737
 30
0.0
 10
96.15433754106559
 20
-149.1843478359678
 30
0.0
 10
96.15433754106559
 20
-149.1843478359678
 30
0.0
 10
96.15502656016264
 20
-149.1881374410016
 30
0.0
 10
96.15502656016264
 20
-149.1895154791957
 30
0.0
 10
96.15502656016264
 20
-149.1895154791957
 30
0.0
 10
96.15640459835673
 20
-149.1929605746809
 30
0.0
 10
96.15640459835673
 20
-149.1950276319721
 30
0.0
 10
96.15640459835673
 20
-149.1950276319721
 30
0.0
 10
96.15709361745378
 20
-149.1981282179088
 30
0.0
 10
96.15709361745378
 20
-149.2001952751999
 30
0.0
 10
96.15709361745378
 20
-149.2001952751999
 30
0.0
 10
96.15812714609936
 20
-149.2036403706852
 30
0.0
 10
96.15812714609936
 20
-149.2057074279764
 30
0.0
 10
96.15812714609936
 20
-149.2057074279764
 30
0.0
 10
96.15916067474494
 20
-149.2091525234616
 30
0.0
 10
96.16019420339052
 20
-149.2105305616557
 30
0.0
 10
96.16019420339052
 20
-149.2105305616557
 30
0.0
 10
96.16019420339052
 20
-149.214664676238
 30
0.0
 10
96.16122773203608
 20
-149.2160427144321
 30
0.0
 10
96.16122773203608
 20
-149.2160427144321
 30
0.0
 10
96.16191675113313
 20
-149.2194878099174
 30
0.0
 10
96.16191675113313
 20
-149.2215548672085
 30
0.0
 10
96.16191675113313
 20
-149.2215548672085
 30
0.0
 10
96.16329478932724
 20
-149.2246554531452
 30
0.0
 10
96.16329478932724
 20
-149.2267225104364
 30
0.0
 10
96.16329478932724
 20
-149.2267225104364
 30
0.0
 10
96.16398380842429
 20
-149.2301676059216
 30
0.0
 10
96.16501733706986
 20
-149.2318901536643
 30
0.0
 10
96.16501733706986
 20
-149.2318901536643
 30
0.0
 10
96.16501733706986
 20
-149.2353352491495
 30
0.0
 10
96.16605086571543
 20
-149.2367132873436
 30
0.0
 10
96.16605086571543
 20
-149.2367132873436
 30
0.0
 10
96.16673988481249
 20
-149.2408474019259
 30
0.0
 10
96.16673988481249
 20
-149.24222544012
 30
0.0
 10
96.16673988481249
 20
-149.24222544012
 30
0.0
 10
96.16811792300659
 20
-149.2456705356053
 30
0.0
 10
96.16811792300659
 20
-149.2477375928964
 30
0.0
 10
96.16811792300659
 20
-149.2477375928964
 30
0.0
 10
96.16880694210363
 20
-149.2511826883816
 30
0.0
 10
96.16880694210363
 20
-149.2532497456728
 30
0.0
 10
96.16880694210363
 20
-149.2532497456728
 30
0.0
 10
96.16984047074921
 20
-149.2566948411581
 30
0.0
 10
96.17087399939479
 20
-149.2584173889007
 30
0.0
 10
96.17087399939479
 20
-149.2584173889007
 30
0.0
 10
96.17190752804036
 20
-149.2618624843859
 30
0.0
 10
96.17190752804036
 20
-149.26324052258
 30
0.0
 10
96.17190752804036
 20
-149.26324052258
 30
0.0
 10
96.17294105668594
 20
-149.2670301276138
 30
0.0
 10
96.17294105668594
 20
-149.2687526753564
 30
0.0
 10
96.17294105668594
 20
-149.2687526753564
 30
0.0
 10
96.17363007578298
 20
-149.2721977708417
 30
0.0
 10
96.17500811397709
 20
-149.2739203185843
 30
0.0
 10
96.17500811397709
 20
-149.2739203185843
 30
0.0
 10
96.17500811397709
 20
-149.2773654140695
 30
0.0
 10
96.17569713307414
 20
-149.2794324713607
 30
0.0
 10
96.17569713307414
 20
-149.2794324713607
 30
0.0
 10
96.17673066171972
 20
-149.2828775668459
 30
0.0
 10
96.17673066171972
 20
-149.2849446241371
 30
0.0
 10
96.17673066171972
 20
-149.2849446241371
 30
0.0
 10
96.17776419036528
 20
-149.2883897196224
 30
0.0
 10
96.17845320946233
 20
-149.2897677578165
 30
0.0
 10
96.17845320946233
 20
-149.2897677578165
 30
0.0
 10
96.17845320946233
 20
-149.2935573628502
 30
0.0
 10
96.17983124765644
 20
-149.2952799105929
 30
0.0
 10
96.17983124765644
 20
-149.2952799105929
 30
0.0
 10
96.18052026675349
 20
-149.2983804965296
 30
0.0
 10
96.18052026675349
 20
-149.3004475538207
 30
0.0
 10
96.18052026675349
 20
-149.3004475538207
 30
0.0
 10
96.18189830494758
 20
-149.303892649306
 30
0.0
 10
96.18258732404463
 20
-149.3056151970486
 30
0.0
 10
96.18258732404463
 20
-149.3056151970486
 30
0.0
 10
96.18258732404463
 20
-149.3090602925338
 30
0.0
 10
96.18362085269021
 20
-149.311127349825
 30
0.0
 10
96.18362085269021
 20
-149.311127349825
 30
0.0
 10
96.18465438133579
 20
-149.3145724453103
 30
0.0
 10
96.18465438133579
 20
-149.3159504835044
 30
0.0
 10
96.18465438133579
 20
-149.3159504835044
 30
0.0
 10
96.18534340043284
 20
-149.3200845980867
 30
0.0
 10
96.18672143862693
 20
-149.3214626362808
 30
0.0
 10
96.18672143862693
 20
-149.3214626362808
 30
0.0
 10
96.18672143862693
 20
-149.324907731766
 30
0.0
 10
96.18741045772398
 20
-149.3269747890571
 30
0.0
 10
96.18741045772398
 20
-149.3269747890571
 30
0.0
 10
96.18844398636956
 20
-149.3304198845424
 30
0.0
 10
96.18844398636956
 20
-149.332142432285
 30
0.0
 10
96.18844398636956
 20
-149.332142432285
 30
0.0
 10
96.18947751501514
 20
-149.3355875277703
 30
0.0
 10
96.1905110436607
 20
-149.3373100755129
 30
0.0
 10
96.1905110436607
 20
-149.3373100755129
 30
0.0
 10
96.19154457230628
 20
-149.3407551709982
 30
0.0
 10
96.19154457230628
 20
-149.3424777187408
 30
0.0
 10
96.19154457230628
 20
-149.3424777187408
 30
0.0
 10
96.19223359140334
 20
-149.3462673237746
 30
0.0
 10
96.19223359140334
 20
-149.3476453619687
 30
0.0
 10
96.19223359140334
 20
-149.3476453619687
 30
0.0
 10
96.19430064869448
 20
-149.3510904574539
 30
0.0
 10
96.19430064869448
 20
-149.353157514745
 30
0.0
 10
96.19430064869448
 20
-149.353157514745
 30
0.0
 10
96.19533417734006
 20
-149.3566026102303
 30
0.0
 10
96.19533417734006
 20
-149.3586696675214
 30
0.0
 10
96.19533417734006
 20
-149.3586696675214
 30
0.0
 10
96.19636770598564
 20
-149.3621147630067
 30
0.0
 10
96.19705672508269
 20
-149.3638373107493
 30
0.0
 10
96.19705672508269
 20
-149.3638373107493
 30
0.0
 10
96.19843476327678
 20
-149.3672824062346
 30
0.0
 10
96.19843476327678
 20
-149.3690049539772
 30
0.0
 10
96.19843476327678
 20
-149.3690049539772
 30
0.0
 10
96.19912378237383
 20
-149.3724500494625
 30
0.0
 10
96.20015731101941
 20
-149.3741725972051
 30
0.0
 10
96.20015731101941
 20
-149.3741725972051
 30
0.0
 10
96.20015731101941
 20
-149.3776176926903
 30
0.0
 10
96.20119083966499
 20
-149.379340240433
 30
0.0
 10
96.20119083966499
 20
-149.379340240433
 30
0.0
 10
96.20222436831055
 20
-149.3827853359182
 30
0.0
 10
96.20222436831055
 20
-149.3848523932093
 30
0.0
 10
96.20222436831055
 20
-149.3848523932093
 30
0.0
 10
96.20325789695613
 20
-149.3882974886946
 30
0.0
 10
96.20394691605318
 20
-149.3903645459858
 30
0.0
 10
96.20394691605318
 20
-149.3903645459858
 30
0.0
 10
96.20532495424729
 20
-149.393809641471
 30
0.0
 10
96.20532495424729
 20
-149.3951876796651
 30
0.0
 10
96.20532495424729
 20
-149.3951876796651
 30
0.0
 10
96.20601397334434
 20
-149.3989772846989
 30
0.0
 10
96.2070475019899
 20
-149.4006998324415
 30
0.0
 10
96.2070475019899
 20
-149.4006998324415
 30
0.0
 10
96.20808103063548
 20
-149.4041449279268
 30
0.0
 10
96.20808103063548
 20
-149.4058674756694
 30
0.0
 10
96.20808103063548
 20
-149.4058674756694
 30
0.0
 10
96.20877004973254
 20
-149.4093125711546
 30
0.0
 10
96.21014808792664
 20
-149.4110351188972
 30
0.0
 10
96.21014808792664
 20
-149.4110351188972
 30
0.0
 10
96.21014808792664
 20
-149.4144802143825
 30
0.0
 10
96.21083710702368
 20
-149.4165472716736
 30
0.0
 10
96.21083710702368
 20
-149.4165472716736
 30
0.0
 10
96.21187063566926
 20
-149.4199923671589
 30
0.0
 10
96.21187063566926
 20
-149.421370405353
 30
0.0
 10
96.21187063566926
 20
-149.421370405353
 30
0.0
 10
96.21290416431484
 20
-149.4255045199353
 30
0.0
 10
96.21393769296041
 20
-149.4268825581294
 30
0.0
 10
96.21393769296041
 20
-149.4268825581294
 30
0.0
 10
96.21497122160598
 20
-149.4303276536147
 30
0.0
 10
96.21497122160598
 20
-149.4323947109058
 30
0.0
 10
96.21497122160598
 20
-149.4323947109058
 30
0.0
 10
96.21566024070303
 20
-149.435839806391
 30
0.0
 10
96.21703827889714
 20
-149.4375623541337
 30
0.0
 10
96.21703827889714
 20
-149.4375623541337
 30
0.0
 10
96.21772729799419
 20
-149.4410074496189
 30
0.0
 10
96.21772729799419
 20
-149.4430745069101
 30
0.0
 10
96.21772729799419
 20
-149.4430745069101
 30
0.0
 10
96.21876082663975
 20
-149.4461750928468
 30
0.0
 10
96.21979435528533
 20
-149.4478976405894
 30
0.0
 10
96.21979435528533
 20
-149.4478976405894
 30
0.0
 10
96.22048337438238
 20
-149.4516872456232
 30
0.0
 10
96.22048337438238
 20
-149.4530652838173
 30
0.0
 10
96.22048337438238
 20
-149.4530652838173
 30
0.0
 10
96.22186141257649
 20
-149.4565103793026
 30
0.0
 10
96.22255043167354
 20
-149.4585774365937
 30
0.0
 10
96.22255043167354
 20
-149.4585774365937
 30
0.0
 10
96.2235839603191
 20
-149.4620225320789
 30
0.0
 10
96.2235839603191
 20
-149.4640895893701
 30
0.0
 10
96.2235839603191
 20
-149.4640895893701
 30
0.0
 10
96.22461748896468
 20
-149.4675346848553
 30
0.0
 10
96.22565101761026
 20
-149.4696017421465
 30
0.0
 10
96.22565101761026
 20
-149.4696017421465
 30
0.0
 10
96.22668454625584
 20
-149.4737358567288
 30
0.0
 10
96.22668454625584
 20
-149.4737358567288
 30
0.0
 10
96.22668454625584
 20
-149.4737358567288
 30
0.0
  0
POLYLINE
  5
58C
330
584
100
AcDbEntity
  8
Capa 1
370
     0
100
AcDb2dPolyline
 66
     1
 10
0.0
 20
0.0
 30
0.0
  0
VERTEX
  5
58D
330
58C
100
AcDbEntity
  8
Capa 1
370
     0
100
AcDbVertex
100
AcDb2dVertex
 10
96.79994843500141
 20
-146.9739745726315
 30
0.0
  0
VERTEX
  5
58E
330
58C
100
AcDbEntity
  8
Capa 1
370
     0
100
AcDbVertex
100
AcDb2dVertex
 10
96.82888723707751
 20
-147.0029133747076
 30
0.0
  0
SEQEND
  5
58F
330
58C
100
AcDbEntity
  8
Capa 1
370
     0
  0
POLYLINE
  5
590
330
584
100
AcDbEntity
  8
Capa 1
370
     0
100
AcDb2dPolyline
 66
     1
 10
0.0
 20
0.0
 30
0.0
  0
VERTEX
  5
591
330
590
100
AcDbEntity
  8
Capa 1
370
     0
100
AcDbVertex
100
AcDb2dVertex
 10
96.46370711564103
 20
-146.9739745726315
 30
0.0
  0
VERTEX
  5
592
330
590
100
AcDbEntity
  8
Capa 1
370
     0
100
AcDbVertex
100
AcDb2dVertex
 10
96.81062823100568
 20
-147.3208956879962
 30
0.0
  0
SEQEND
  5
593
330
590
100
AcDbEntity
  8
Capa 1
370
     0
  0
POLYLINE
  5
594
330
584
100
AcDbEntity
  8
Capa 1
370
     0
100
AcDb2dPolyline
 66
     1
 10
0.0
 20
0.0
 30
0.0
  0
VERTEX
  5
595
330
594
100
AcDbEntity
  8
Capa 1
370
     0
100
AcDbVertex
100
AcDb2dVertex
 10
96.81062823100568
 20
-147.3208956879962
 30
0.0
  0
VERTEX
  5
596
330
594
100
AcDbEntity
  8
Capa 1
370
     0
100
AcDbVertex
100
AcDb2dVertex
 10
96.82888723707751
 20
-147.3394992036165
 30
0.0
  0
SEQEND
  5
597
330
594
100
AcDbEntity
  8
Capa 1
370
     0
  0
POLYLINE
  5
598
330
584
100
AcDbEntity
  8
Capa 1
370
     0
100
AcDb2dPolyline
 66
     1
 10
0.0
 20
0.0
 30
0.0
  0
VERTEX
  5
599
330
598
100
AcDbEntity
  8
Capa 1
370
     0
100
AcDbVertex
100
AcDb2dVertex
 10
96.14159068777016
 20
-146.9877549545725
 30
0.0
  0
VERTEX
  5
59A
330
598
100
AcDbEntity
  8
Capa 1
370
     0
100
AcDbVertex
100
AcDb2dVertex
 10
96.47369789254824
 20
-147.3208956879962
 30
0.0
  0
SEQEND
  5
59B
330
598
100
AcDbEntity
  8
Capa 1
370
     0
  0
POLYLINE
  5
59C
330
584
100
AcDbEntity
  8
Capa 1
370
     0
100
AcDb2dPolyline
 66
     1
 10
0.0
 20
0.0
 30
0.0
  0
VERTEX
  5
59D
330
59C
100
AcDbEntity
  8
Capa 1
370
     0
100
AcDbVertex
100
AcDb2dVertex
 10
96.47369789254824
 20
-147.3208956879962
 30
0.0
  0
VERTEX
  5
59E
330
59C
100
AcDbEntity
  8
Capa 1
370
     0
100
AcDbVertex
100
AcDb2dVertex
 10
96.67385794024126
 20
-147.5210557356892
 30
0.0
  0
SEQEND
  5
59F
330
59C
100
AcDbEntity
  8
Capa 1
370
     0
  0
POLYLINE
  5
5A0
330
584
100
AcDbEntity
  8
Capa 1
370
     0
100
AcDb2dPolyline
 66
     1
 10
0.0
 20
0.0
 30
0.0
  0
VERTEX
  5
5A1
330
5A0
100
AcDbEntity
  8
Capa 1
370
     0
100
AcDbVertex
100
AcDb2dVertex
 10
96.25975746291424
 20
-147.4435410872711
 30
0.0
  0
VERTEX
  5
5A2
330
5A0
100
AcDbEntity
  8
Capa 1
370
     0
100
AcDbVertex
100
AcDb2dVertex
 10
96.33692760178383
 20
-147.5210557356892
 30
0.0
  0
SEQEND
  5
5A3
330
5A0
100
AcDbEntity
  8
Capa 1
370
     0
  0
POLYLINE
  5
5A4
330
584
100
AcDbEntity
  8
Capa 1
370
     0
100
AcDb2dPolyline
 66
     1
 10
0.0
 20
0.0
 30
0.0
  0
VERTEX
  5
5A5
330
5A4
100
AcDbEntity
  8
Capa 1
370
     0
100
AcDbVertex
100
AcDb2dVertex
 10
96.72760142981116
 20
-148.9211425408947
 30
0.0
  0
VERTEX
  5
5A6
330
5A4
100
AcDbEntity
  8
Capa 1
370
     0
100
AcDbVertex
100
AcDb2dVertex
 10
96.82888723707751
 20
-149.0238063863552
 30
0.0
  0
SEQEND
  5
5A7
330
5A4
100
AcDbEntity
  8
Capa 1
370
     0
  0
POLYLINE
  5
5A8
330
584
100
AcDbEntity
  8
Capa 1
370
     0
100
AcDb2dPolyline
 66
     1
 10
0.0
 20
0.0
 30
0.0
  0
VERTEX
  5
5A9
330
5A8
100
AcDbEntity
  8
Capa 1
370
     0
100
AcDbVertex
100
AcDb2dVertex
 10
96.39067109135372
 20
-148.9211425408947
 30
0.0
  0
VERTEX
  5
5AA
330
5A8
100
AcDbEntity
  8
Capa 1
370
     0
100
AcDbVertex
100
AcDb2dVertex
 10
96.58979761040116
 20
-149.1213025885877
 30
0.0
  0
SEQEND
  5
5AB
330
5A8
100
AcDbEntity
  8
Capa 1
370
     0
  0
POLYLINE
  5
5AC
330
584
100
AcDbEntity
  8
Capa 1
370
     0
100
AcDb2dPolyline
 66
     1
 10
0.0
 20
0.0
 30
0.0
  0
VERTEX
  5
5AD
330
5AC
100
AcDbEntity
  8
Capa 1
370
     0
100
AcDbVertex
100
AcDb2dVertex
 10
96.58979761040116
 20
-149.1213025885877
 30
0.0
  0
VERTEX
  5
5AE
330
5AC
100
AcDbEntity
  8
Capa 1
370
     0
100
AcDbVertex
100
AcDb2dVertex
 10
96.82888723707751
 20
-149.3603922152641
 30
0.0
  0
SEQEND
  5
5AF
330
5AC
100
AcDbEntity
  8
Capa 1
370
     0
  0
POLYLINE
  5
5B0
330
584
100
AcDbEntity
  8
Capa 1
370
     0
100
AcDb2dPolyline
 66
     1
 10
0.0
 20
0.0
 30
0.0
  0
VERTEX
  5
5B1
330
5B0
100
AcDbEntity
  8
Capa 1
370
     0
100
AcDbVertex
100
AcDb2dVertex
 10
96.12126462440719
 20
-148.9886664124056
 30
0.0
  0
VERTEX
  5
5B2
330
5B0
100
AcDbEntity
  8
Capa 1
370
     0
100
AcDbVertex
100
AcDb2dVertex
 10
96.2539008005893
 20
-149.1213025885877
 30
0.0
  0
SEQEND
  5
5B3
330
5B0
100
AcDbEntity
  8
Capa 1
370
     0
  0
POLYLINE
  5
5B4
330
584
100
AcDbEntity
  8
Capa 1
370
     0
100
AcDb2dPolyline
 66
     1
 10
0.0
 20
0.0
 30
0.0
  0
VERTEX
  5
5B5
330
5B4
100
AcDbEntity
  8
Capa 1
370
     0
100
AcDbVertex
100
AcDb2dVertex
 10
96.2539008005893
 20
-149.1213025885877
 30
0.0
  0
VERTEX
  5
5B6
330
5B4
100
AcDbEntity
  8
Capa 1
370
     0
100
AcDbVertex
100
AcDb2dVertex
 10
96.60633406873036
 20
-149.4737358567288
 30
0.0
  0
SEQEND
  5
5B7
330
5B4
100
AcDbEntity
  8
Capa 1
370
     0
  0
POLYLINE
  5
5B8
330
584
100
AcDbEntity
  8
Capa 1
370
     0
100
AcDb2dPolyline
 66
     1
 10
0.0
 20
0.0
 30
0.0
  0
VERTEX
  5
5B9
330
5B8
100
AcDbEntity
  8
Capa 1
370
     0
100
AcDbVertex
100
AcDb2dVertex
 10
96.21083710702368
 20
-149.4144802143825
 30
0.0
  0
VERTEX
  5
5BA
330
5B8
100
AcDbEntity
  8
Capa 1
370
     0
100
AcDbVertex
100
AcDb2dVertex
 10
96.26940373027293
 20
-149.4737358567288
 30
0.0
  0
SEQEND
  5
5BB
330
5B8
100
AcDbEntity
  8
Capa 1
370
     0
  0
ENDBLK
  5
587
330
584
100
AcDbEntity
  8
0
100
AcDbBlockEnd
  0
BLOCK
  5
5BE
330
5BC
100
AcDbEntity
  8
0
100
AcDbBlockBegin
  2
block 160
 70
     0
 71
     0
 10
0.0
 20
0.0
 30
0.0
  3
block 160
  1

  0
POLYLINE
  5
5C0
330
5BC
100
AcDbEntity
  8
Capa 1
 62
   253
420
 11381932
370
    15
100
AcDb2dPolyline
 66
     1
 10
0.0
 20
0.0
 30
0.0
  0
VERTEX
  5
5C1
330
5C0
100
AcDbEntity
  8
Capa 1
 62
   253
420
 11381932
370
    15
100
AcDbVertex
100
AcDb2dVertex
 10
96.82957625617456
 20
-147.3212401975447
 30
0.0
  0
VERTEX
  5
5C2
330
5C0
100
AcDbEntity
  8
Capa 1
 62
   253
420
 11381932
370
    15
100
AcDbVertex
100
AcDb2dVertex
 10
96.24528806187618
 20
-147.3212401975447
 30
0.0
  0
SEQEND
  5
5C3
330
5C0
100
AcDbEntity
  8
Capa 1
370
    15
  0
ENDBLK
  5
5BF
330
5BC
100
AcDbEntity
  8
0
100
AcDbBlockEnd
  0
BLOCK
  5
5C6
330
5C4
100
AcDbEntity
  8
0
100
AcDbBlockBegin
  2
block 161
 70
     0
 71
     0
 10
0.0
 20
0.0
 30
0.0
  3
block 161
  1

  0
POLYLINE
  5
5C8
330
5C4
100
AcDbEntity
  8
Capa 1
 62
   253
420
 11381932
370
    15
100
AcDb2dPolyline
 66
     1
 10
0.0
 20
0.0
 30
0.0
  0
VERTEX
  5
5C9
330
5C8
100
AcDbEntity
  8
Capa 1
 62
   253
420
 11381932
370
    15
100
AcDbVertex
100
AcDb2dVertex
 10
96.82957625617456
 20
-149.1209580790392
 30
0.0
  0
VERTEX
  5
5CA
330
5C8
100
AcDbEntity
  8
Capa 1
 62
   253
420
 11381932
370
    15
100
AcDbVertex
100
AcDb2dVertex
 10
96.14124617822164
 20
-149.1209580790392
 30
0.0
  0
SEQEND
  5
5CB
330
5C8
100
AcDbEntity
  8
Capa 1
370
    15
  0
ENDBLK
  5
5C7
330
5C4
100
AcDbEntity
  8
0
100
AcDbBlockEnd
  0
BLOCK
  5
5CE
330
5CC
100
AcDbEntity
  8
0
100
AcDbBlockBegin
  2
block 162
 70
     0
 71
     0
 10
0.0
 20
0.0
 30
0.0
  3
block 162
  1

  0
POLYLINE
  5
5D0
330
5CC
100
AcDbEntity
  8
Capa 1
 62
   253
420
 11381932
370
    15
100
AcDb2dPolyline
 66
     1
 10
0.0
 20
0.0
 30
0.0
  0
VERTEX
  5
5D1
330
5D0
100
AcDbEntity
  8
Capa 1
 62
   253
420
 11381932
370
    15
100
AcDbVertex
100
AcDb2dVertex
 10
96.82957625617456
 20
-147.5210557356892
 30
0.0
  0
VERTEX
  5
5D2
330
5D0
100
AcDbEntity
  8
Capa 1
 62
   253
420
 11381932
370
    15
100
AcDbVertex
100
AcDb2dVertex
 10
96.26871471117587
 20
-147.5210557356892
 30
0.0
  0
SEQEND
  5
5D3
330
5D0
100
AcDbEntity
  8
Capa 1
370
    15
  0
ENDBLK
  5
5CF
330
5CC
100
AcDbEntity
  8
0
100
AcDbBlockEnd
  0
BLOCK
  5
5D6
330
5D4
100
AcDbEntity
  8
0
100
AcDbBlockBegin
  2
block 163
 70
     0
 71
     0
 10
0.0
 20
0.0
 30
0.0
  3
block 163
  1

  0
POLYLINE
  5
5D8
330
5D4
100
AcDbEntity
  8
Capa 1
 62
   253
420
 11381932
370
    15
100
AcDb2dPolyline
 66
     1
 10
0.0
 20
0.0
 30
0.0
  0
VERTEX
  5
5D9
330
5D8
100
AcDbEntity
  8
Capa 1
 62
   253
420
 11381932
370
    15
100
AcDbVertex
100
AcDb2dVertex
 10
96.82957625617456
 20
-148.9211425408947
 30
0.0
  0
VERTEX
  5
5DA
330
5D8
100
AcDbEntity
  8
Capa 1
 62
   253
420
 11381932
370
    15
100
AcDbVertex
100
AcDb2dVertex
 10
96.11127384749996
 20
-148.9211425408947
 30
0.0
  0
SEQEND
  5
5DB
330
5D8
100
AcDbEntity
  8
Capa 1
370
    15
  0
ENDBLK
  5
5D7
330
5D4
100
AcDbEntity
  8
0
100
AcDbBlockEnd
  0
BLOCK
  5
5DE
330
5DC
100
AcDbEntity
  8
0
100
AcDbBlockBegin
  2
block 164
 70
     0
 71
     0
 10
0.0
 20
0.0
 30
0.0
  3
block 164
  1

  0
SPLINE
  5
5E0
330
5DC
100
AcDbEntity
  8
Capa 1
  6
AI-Linetype-2
 62
   253
420
 11381932
370
    15
100
AcDbSpline
210
0.0
220
0.0
230
1.0
 70
     8
 71
     3
 72
    14
 73
    10
 74
     0
 42
0.0000000001
 43
0.0000000001
 40
0.0
 40
0.0
 40
0.0
 40
0.0
 40
1.0
 40
1.0
 40
1.0
 40
2.0
 40
2.0
 40
2.0
 40
3.0
 40
3.0
 40
3.0
 40
3.0
 10
120.0529649222437
 20
-147.6364664344451
 30
0.0
 10
119.5286213893887
 20
-147.6364664344451
 30
0.0
 10
119.1028075874118
 20
-148.0619357268734
 30
0.0
 10
119.1028075874118
 20
-148.5862792597284
 30
0.0
 10
119.1028075874118
 20
-149.110967302132
 30
0.0
 10
119.5286213893887
 20
-149.5364365945603
 30
0.0
 10
120.0529649222437
 20
-149.5364365945603
 30
0.0
 10
120.5731743405164
 20
-149.5364365945603
 30
0.0
 10
120.9969210852022
 20
-149.118202002651
 30
0.0
 10
121.0031222570756
 20
-148.5979925843783
 30
0.0
  0
ENDBLK
  5
5DF
330
5DC
100
AcDbEntity
  8
0
100
AcDbBlockEnd
  0
ENDSEC
  0
SECTION
  2
ENTITIES
  0
INSERT
  5
3D
330
1F
100
AcDbEntity
  8
Capa 1
100
AcDbBlockReference
  2
block 2
 10
0.0
 20
0.0
 30
0.0
  0
INSERT
  5
48
330
1F
100
AcDbEntity
  8
Capa 1
100
AcDbBlockReference
  2
block 3
 10
0.0
 20
0.0
 30
0.0
  0
INSERT
  5
50
330
1F
100
AcDbEntity
  8
Capa 1
100
AcDbBlockReference
  2
block 4
 10
0.0
 20
0.0
 30
0.0
  0
INSERT
  5
58
330
1F
100
AcDbEntity
  8
Capa 1
100
AcDbBlockReference
  2
block 5
 10
0.0
 20
0.0
 30
0.0
  0
INSERT
  5
60
330
1F
100
AcDbEntity
  8
Capa 1
100
AcDbBlockReference
  2
block 6
 10
0.0
 20
0.0
 30
0.0
  0
INSERT
  5
68
330
1F
100
AcDbEntity
  8
Capa 1
100
AcDbBlockReference
  2
block 7
 10
0.0
 20
0.0
 30
0.0
  0
INSERT
  5
70
330
1F
100
AcDbEntity
  8
Capa 1
100
AcDbBlockReference
  2
block 8
 10
0.0
 20
0.0
 30
0.0
  0
INSERT
  5
78
330
1F
100
AcDbEntity
  8
Capa 1
100
AcDbBlockReference
  2
block 9
 10
0.0
 20
0.0
 30
0.0
  0
INSERT
  5
80
330
1F
100
AcDbEntity
  8
Capa 1
100
AcDbBlockReference
  2
block 10
 10
0.0
 20
0.0
 30
0.0
  0
INSERT
  5
88
330
1F
100
AcDbEntity
  8
Capa 1
100
AcDbBlockReference
  2
block 11
 10
0.0
 20
0.0
 30
0.0
  0
INSERT
  5
90
330
1F
100
AcDbEntity
  8
Capa 1
100
AcDbBlockReference
  2
block 12
 10
0.0
 20
0.0
 30
0.0
  0
INSERT
  5
98
330
1F
100
AcDbEntity
  8
Capa 1
100
AcDbBlockReference
  2
block 13
 10
0.0
 20
0.0
 30
0.0
  0
INSERT
  5
A0
330
1F
100
AcDbEntity
  8
Capa 1
100
AcDbBlockReference
  2
block 14
 10
0.0
 20
0.0
 30
0.0
  0
INSERT
  5
A8
330
1F
100
AcDbEntity
  8
Capa 1
100
AcDbBlockReference
  2
block 15
 10
0.0
 20
0.0
 30
0.0
  0
INSERT
  5
B0
330
1F
100
AcDbEntity
  8
Capa 1
100
AcDbBlockReference
  2
block 16
 10
0.0
 20
0.0
 30
0.0
  0
INSERT
  5
B8
330
1F
100
AcDbEntity
  8
Capa 1
100
AcDbBlockReference
  2
block 17
 10
0.0
 20
0.0
 30
0.0
  0
INSERT
  5
C0
330
1F
100
AcDbEntity
  8
Capa 1
100
AcDbBlockReference
  2
block 18
 10
0.0
 20
0.0
 30
0.0
  0
INSERT
  5
C8
330
1F
100
AcDbEntity
  8
Capa 1
100
AcDbBlockReference
  2
block 19
 10
0.0
 20
0.0
 30
0.0
  0
INSERT
  5
D0
330
1F
100
AcDbEntity
  8
Capa 1
100
AcDbBlockReference
  2
block 20
 10
0.0
 20
0.0
 30
0.0
  0
INSERT
  5
D8
330
1F
100
AcDbEntity
  8
Capa 1
100
AcDbBlockReference
  2
block 21
 10
0.0
 20
0.0
 30
0.0
  0
INSERT
  5
E0
330
1F
100
AcDbEntity
  8
Capa 1
100
AcDbBlockReference
  2
block 22
 10
0.0
 20
0.0
 30
0.0
  0
INSERT
  5
E8
330
1F
100
AcDbEntity
  8
Capa 1
100
AcDbBlockReference
  2
block 23
 10
0.0
 20
0.0
 30
0.0
  0
INSERT
  5
F0
330
1F
100
AcDbEntity
  8
Capa 1
100
AcDbBlockReference
  2
block 24
 10
0.0
 20
0.0
 30
0.0
  0
INSERT
  5
F8
330
1F
100
AcDbEntity
  8
Capa 1
100
AcDbBlockReference
  2
block 25
 10
0.0
 20
0.0
 30
0.0
  0
INSERT
  5
100
330
1F
100
AcDbEntity
  8
Capa 1
100
AcDbBlockReference
  2
block 26
 10
0.0
 20
0.0
 30
0.0
  0
INSERT
  5
108
330
1F
100
AcDbEntity
  8
Capa 1
100
AcDbBlockReference
  2
block 27
 10
0.0
 20
0.0
 30
0.0
  0
INSERT
  5
110
330
1F
100
AcDbEntity
  8
Capa 1
100
AcDbBlockReference
  2
block 28
 10
0.0
 20
0.0
 30
0.0
  0
INSERT
  5
118
330
1F
100
AcDbEntity
  8
Capa 1
100
AcDbBlockReference
  2
block 29
 10
0.0
 20
0.0
 30
0.0
  0
INSERT
  5
120
330
1F
100
AcDbEntity
  8
Capa 1
100
AcDbBlockReference
  2
block 30
 10
0.0
 20
0.0
 30
0.0
  0
INSERT
  5
128
330
1F
100
AcDbEntity
  8
Capa 1
100
AcDbBlockReference
  2
block 31
 10
0.0
 20
0.0
 30
0.0
  0
INSERT
  5
130
330
1F
100
AcDbEntity
  8
Capa 1
100
AcDbBlockReference
  2
block 32
 10
0.0
 20
0.0
 30
0.0
  0
INSERT
  5
138
330
1F
100
AcDbEntity
  8
Capa 1
100
AcDbBlockReference
  2
block 33
 10
0.0
 20
0.0
 30
0.0
  0
INSERT
  5
140
330
1F
100
AcDbEntity
  8
Capa 1
100
AcDbBlockReference
  2
block 34
 10
0.0
 20
0.0
 30
0.0
  0
INSERT
  5
148
330
1F
100
AcDbEntity
  8
Capa 1
100
AcDbBlockReference
  2
block 35
 10
0.0
 20
0.0
 30
0.0
  0
INSERT
  5
150
330
1F
100
AcDbEntity
  8
Capa 1
100
AcDbBlockReference
  2
block 36
 10
0.0
 20
0.0
 30
0.0
  0
INSERT
  5
158
330
1F
100
AcDbEntity
  8
Capa 1
100
AcDbBlockReference
  2
block 37
 10
0.0
 20
0.0
 30
0.0
  0
INSERT
  5
160
330
1F
100
AcDbEntity
  8
Capa 1
100
AcDbBlockReference
  2
block 38
 10
0.0
 20
0.0
 30
0.0
  0
INSERT
  5
168
330
1F
100
AcDbEntity
  8
Capa 1
100
AcDbBlockReference
  2
block 39
 10
0.0
 20
0.0
 30
0.0
  0
INSERT
  5
170
330
1F
100
AcDbEntity
  8
Capa 1
100
AcDbBlockReference
  2
block 40
 10
0.0
 20
0.0
 30
0.0
  0
INSERT
  5
178
330
1F
100
AcDbEntity
  8
Capa 1
100
AcDbBlockReference
  2
block 41
 10
0.0
 20
0.0
 30
0.0
  0
INSERT
  5
180
330
1F
100
AcDbEntity
  8
Capa 1
100
AcDbBlockReference
  2
block 42
 10
0.0
 20
0.0
 30
0.0
  0
INSERT
  5
188
330
1F
100
AcDbEntity
  8
Capa 1
100
AcDbBlockReference
  2
block 43
 10
0.0
 20
0.0
 30
0.0
  0
INSERT
  5
190
330
1F
100
AcDbEntity
  8
Capa 1
100
AcDbBlockReference
  2
block 44
 10
0.0
 20
0.0
 30
0.0
  0
INSERT
  5
198
330
1F
100
AcDbEntity
  8
Capa 1
100
AcDbBlockReference
  2
block 45
 10
0.0
 20
0.0
 30
0.0
  0
INSERT
  5
1A0
330
1F
100
AcDbEntity
  8
Capa 1
100
AcDbBlockReference
  2
block 46
 10
0.0
 20
0.0
 30
0.0
  0
INSERT
  5
1A5
330
1F
100
AcDbEntity
  8
Capa 1
100
AcDbBlockReference
  2
block 47
 10
0.0
 20
0.0
 30
0.0
  0
INSERT
  5
1AD
330
1F
100
AcDbEntity
  8
Capa 1
100
AcDbBlockReference
  2
block 48
 10
0.0
 20
0.0
 30
0.0
  0
INSERT
  5
1B5
330
1F
100
AcDbEntity
  8
Capa 1
100
AcDbBlockReference
  2
block 49
 10
0.0
 20
0.0
 30
0.0
  0
INSERT
  5
1BA
330
1F
100
AcDbEntity
  8
Capa 1
100
AcDbBlockReference
  2
block 50
 10
0.0
 20
0.0
 30
0.0
  0
INSERT
  5
1C2
330
1F
100
AcDbEntity
  8
Capa 1
100
AcDbBlockReference
  2
block 51
 10
0.0
 20
0.0
 30
0.0
  0
INSERT
  5
1CA
330
1F
100
AcDbEntity
  8
Capa 1
100
AcDbBlockReference
  2
block 52
 10
0.0
 20
0.0
 30
0.0
  0
INSERT
  5
1D2
330
1F
100
AcDbEntity
  8
Capa 1
100
AcDbBlockReference
  2
block 53
 10
0.0
 20
0.0
 30
0.0
  0
INSERT
  5
1DA
330
1F
100
AcDbEntity
  8
Capa 1
100
AcDbBlockReference
  2
block 54
 10
0.0
 20
0.0
 30
0.0
  0
INSERT
  5
1E2
330
1F
100
AcDbEntity
  8
Capa 1
100
AcDbBlockReference
  2
block 55
 10
0.0
 20
0.0
 30
0.0
  0
INSERT
  5
1EA
330
1F
100
AcDbEntity
  8
Capa 1
100
AcDbBlockReference
  2
block 56
 10
0.0
 20
0.0
 30
0.0
  0
INSERT
  5
1EF
330
1F
100
AcDbEntity
  8
Capa 1
100
AcDbBlockReference
  2
block 57
 10
0.0
 20
0.0
 30
0.0
  0
INSERT
  5
1F4
330
1F
100
AcDbEntity
  8
Capa 1
100
AcDbBlockReference
  2
block 58
 10
0.0
 20
0.0
 30
0.0
  0
INSERT
  5
1F9
330
1F
100
AcDbEntity
  8
Capa 1
100
AcDbBlockReference
  2
block 59
 10
0.0
 20
0.0
 30
0.0
  0
INSERT
  5
201
330
1F
100
AcDbEntity
  8
Capa 1
100
AcDbBlockReference
  2
block 60
 10
0.0
 20
0.0
 30
0.0
  0
INSERT
  5
209
330
1F
100
AcDbEntity
  8
Capa 1
100
AcDbBlockReference
  2
block 61
 10
0.0
 20
0.0
 30
0.0
  0
INSERT
  5
211
330
1F
100
AcDbEntity
  8
Capa 1
100
AcDbBlockReference
  2
block 62
 10
0.0
 20
0.0
 30
0.0
  0
INSERT
  5
219
330
1F
100
AcDbEntity
  8
Capa 1
100
AcDbBlockReference
  2
block 63
 10
0.0
 20
0.0
 30
0.0
  0
INSERT
  5
221
330
1F
100
AcDbEntity
  8
Capa 1
100
AcDbBlockReference
  2
block 64
 10
0.0
 20
0.0
 30
0.0
  0
INSERT
  5
229
330
1F
100
AcDbEntity
  8
Capa 1
100
AcDbBlockReference
  2
block 65
 10
0.0
 20
0.0
 30
0.0
  0
INSERT
  5
231
330
1F
100
AcDbEntity
  8
Capa 1
100
AcDbBlockReference
  2
block 66
 10
0.0
 20
0.0
 30
0.0
  0
INSERT
  5
239
330
1F
100
AcDbEntity
  8
Capa 1
100
AcDbBlockReference
  2
block 67
 10
0.0
 20
0.0
 30
0.0
  0
INSERT
  5
241
330
1F
100
AcDbEntity
  8
Capa 1
100
AcDbBlockReference
  2
block 68
 10
0.0
 20
0.0
 30
0.0
  0
INSERT
  5
246
330
1F
100
AcDbEntity
  8
Capa 1
100
AcDbBlockReference
  2
block 69
 10
0.0
 20
0.0
 30
0.0
  0
INSERT
  5
24E
330
1F
100
AcDbEntity
  8
Capa 1
100
AcDbBlockReference
  2
block 70
 10
0.0
 20
0.0
 30
0.0
  0
INSERT
  5
256
330
1F
100
AcDbEntity
  8
Capa 1
100
AcDbBlockReference
  2
block 71
 10
0.0
 20
0.0
 30
0.0
  0
INSERT
  5
25E
330
1F
100
AcDbEntity
  8
Capa 1
100
AcDbBlockReference
  2
block 72
 10
0.0
 20
0.0
 30
0.0
  0
INSERT
  5
266
330
1F
100
AcDbEntity
  8
Capa 1
100
AcDbBlockReference
  2
block 73
 10
0.0
 20
0.0
 30
0.0
  0
INSERT
  5
26E
330
1F
100
AcDbEntity
  8
Capa 1
100
AcDbBlockReference
  2
block 74
 10
0.0
 20
0.0
 30
0.0
  0
INSERT
  5
276
330
1F
100
AcDbEntity
  8
Capa 1
100
AcDbBlockReference
  2
block 75
 10
0.0
 20
0.0
 30
0.0
  0
INSERT
  5
27E
330
1F
100
AcDbEntity
  8
Capa 1
100
AcDbBlockReference
  2
block 76
 10
0.0
 20
0.0
 30
0.0
  0
INSERT
  5
286
330
1F
100
AcDbEntity
  8
Capa 1
100
AcDbBlockReference
  2
block 77
 10
0.0
 20
0.0
 30
0.0
  0
INSERT
  5
28E
330
1F
100
AcDbEntity
  8
Capa 1
100
AcDbBlockReference
  2
block 78
 10
0.0
 20
0.0
 30
0.0
  0
INSERT
  5
293
330
1F
100
AcDbEntity
  8
Capa 1
100
AcDbBlockReference
  2
block 79
 10
0.0
 20
0.0
 30
0.0
  0
INSERT
  5
298
330
1F
100
AcDbEntity
  8
Capa 1
100
AcDbBlockReference
  2
block 80
 10
0.0
 20
0.0
 30
0.0
  0
INSERT
  5
2A0
330
1F
100
AcDbEntity
  8
Capa 1
100
AcDbBlockReference
  2
block 81
 10
0.0
 20
0.0
 30
0.0
  0
INSERT
  5
2A5
330
1F
100
AcDbEntity
  8
Capa 1
100
AcDbBlockReference
  2
block 82
 10
0.0
 20
0.0
 30
0.0
  0
INSERT
  5
2AA
330
1F
100
AcDbEntity
  8
Capa 1
100
AcDbBlockReference
  2
block 83
 10
0.0
 20
0.0
 30
0.0
  0
INSERT
  5
2B2
330
1F
100
AcDbEntity
  8
Capa 1
100
AcDbBlockReference
  2
block 84
 10
0.0
 20
0.0
 30
0.0
  0
INSERT
  5
2BA
330
1F
100
AcDbEntity
  8
Capa 1
100
AcDbBlockReference
  2
block 85
 10
0.0
 20
0.0
 30
0.0
  0
INSERT
  5
2C2
330
1F
100
AcDbEntity
  8
Capa 1
100
AcDbBlockReference
  2
block 86
 10
0.0
 20
0.0
 30
0.0
  0
INSERT
  5
2C7
330
1F
100
AcDbEntity
  8
Capa 1
100
AcDbBlockReference
  2
block 87
 10
0.0
 20
0.0
 30
0.0
  0
INSERT
  5
2CC
330
1F
100
AcDbEntity
  8
Capa 1
100
AcDbBlockReference
  2
block 88
 10
0.0
 20
0.0
 30
0.0
  0
INSERT
  5
2D1
330
1F
100
AcDbEntity
  8
Capa 1
100
AcDbBlockReference
  2
block 89
 10
0.0
 20
0.0
 30
0.0
  0
INSERT
  5
2D9
330
1F
100
AcDbEntity
  8
Capa 1
100
AcDbBlockReference
  2
block 90
 10
0.0
 20
0.0
 30
0.0
  0
INSERT
  5
2E1
330
1F
100
AcDbEntity
  8
Capa 1
100
AcDbBlockReference
  2
block 91
 10
0.0
 20
0.0
 30
0.0
  0
INSERT
  5
2E9
330
1F
100
AcDbEntity
  8
Capa 1
100
AcDbBlockReference
  2
block 92
 10
0.0
 20
0.0
 30
0.0
  0
INSERT
  5
2F1
330
1F
100
AcDbEntity
  8
Capa 1
100
AcDbBlockReference
  2
block 93
 10
0.0
 20
0.0
 30
0.0
  0
INSERT
  5
2F9
330
1F
100
AcDbEntity
  8
Capa 1
100
AcDbBlockReference
  2
block 94
 10
0.0
 20
0.0
 30
0.0
  0
INSERT
  5
301
330
1F
100
AcDbEntity
  8
Capa 1
100
AcDbBlockReference
  2
block 95
 10
0.0
 20
0.0
 30
0.0
  0
INSERT
  5
307
330
1F
100
AcDbEntity
  8
Capa 1
100
AcDbBlockReference
  2
block 96
 10
0.0
 20
0.0
 30
0.0
  0
INSERT
  5
30C
330
1F
100
AcDbEntity
  8
Capa 1
100
AcDbBlockReference
  2
block 97
 10
0.0
 20
0.0
 30
0.0
  0
INSERT
  5
311
330
1F
100
AcDbEntity
  8
Capa 1
100
AcDbBlockReference
  2
block 98
 10
0.0
 20
0.0
 30
0.0
  0
INSERT
  5
316
330
1F
100
AcDbEntity
  8
Capa 1
100
AcDbBlockReference
  2
block 99
 10
0.0
 20
0.0
 30
0.0
  0
INSERT
  5
31B
330
1F
100
AcDbEntity
  8
Capa 1
100
AcDbBlockReference
  2
block 100
 10
0.0
 20
0.0
 30
0.0
  0
INSERT
  5
323
330
1F
100
AcDbEntity
  8
Capa 1
100
AcDbBlockReference
  2
block 101
 10
0.0
 20
0.0
 30
0.0
  0
INSERT
  5
32B
330
1F
100
AcDbEntity
  8
Capa 1
100
AcDbBlockReference
  2
block 102
 10
0.0
 20
0.0
 30
0.0
  0
INSERT
  5
333
330
1F
100
AcDbEntity
  8
Capa 1
100
AcDbBlockReference
  2
block 103
 10
0.0
 20
0.0
 30
0.0
  0
INSERT
  5
33B
330
1F
100
AcDbEntity
  8
Capa 1
100
AcDbBlockReference
  2
block 104
 10
0.0
 20
0.0
 30
0.0
  0
INSERT
  5
340
330
1F
100
AcDbEntity
  8
Capa 1
100
AcDbBlockReference
  2
block 105
 10
0.0
 20
0.0
 30
0.0
  0
INSERT
  5
348
330
1F
100
AcDbEntity
  8
Capa 1
100
AcDbBlockReference
  2
block 106
 10
0.0
 20
0.0
 30
0.0
  0
INSERT
  5
350
330
1F
100
AcDbEntity
  8
Capa 1
100
AcDbBlockReference
  2
block 107
 10
0.0
 20
0.0
 30
0.0
  0
INSERT
  5
355
330
1F
100
AcDbEntity
  8
Capa 1
100
AcDbBlockReference
  2
block 108
 10
0.0
 20
0.0
 30
0.0
  0
INSERT
  5
35D
330
1F
100
AcDbEntity
  8
Capa 1
100
AcDbBlockReference
  2
block 109
 10
0.0
 20
0.0
 30
0.0
  0
INSERT
  5
365
330
1F
100
AcDbEntity
  8
Capa 1
100
AcDbBlockReference
  2
block 110
 10
0.0
 20
0.0
 30
0.0
  0
INSERT
  5
36D
330
1F
100
AcDbEntity
  8
Capa 1
100
AcDbBlockReference
  2
block 111
 10
0.0
 20
0.0
 30
0.0
  0
INSERT
  5
375
330
1F
100
AcDbEntity
  8
Capa 1
100
AcDbBlockReference
  2
block 112
 10
0.0
 20
0.0
 30
0.0
  0
INSERT
  5
37A
330
1F
100
AcDbEntity
  8
Capa 1
100
AcDbBlockReference
  2
block 113
 10
0.0
 20
0.0
 30
0.0
  0
INSERT
  5
393
330
1F
100
AcDbEntity
  8
Capa 1
100
AcDbBlockReference
  2
block 114
 10
0.0
 20
0.0
 30
0.0
  0
INSERT
  5
39B
330
1F
100
AcDbEntity
  8
Capa 1
100
AcDbBlockReference
  2
block 115
 10
0.0
 20
0.0
 30
0.0
  0
INSERT
  5
3A0
330
1F
100
AcDbEntity
  8
Capa 1
100
AcDbBlockReference
  2
block 116
 10
0.0
 20
0.0
 30
0.0
  0
INSERT
  5
3A8
330
1F
100
AcDbEntity
  8
Capa 1
100
AcDbBlockReference
  2
block 117
 10
0.0
 20
0.0
 30
0.0
  0
INSERT
  5
3B0
330
1F
100
AcDbEntity
  8
Capa 1
100
AcDbBlockReference
  2
block 118
 10
0.0
 20
0.0
 30
0.0
  0
INSERT
  5
3B8
330
1F
100
AcDbEntity
  8
Capa 1
100
AcDbBlockReference
  2
block 119
 10
0.0
 20
0.0
 30
0.0
  0
INSERT
  5
3C0
330
1F
100
AcDbEntity
  8
Capa 1
100
AcDbBlockReference
  2
block 120
 10
0.0
 20
0.0
 30
0.0
  0
INSERT
  5
3C8
330
1F
100
AcDbEntity
  8
Capa 1
100
AcDbBlockReference
  2
block 121
 10
0.0
 20
0.0
 30
0.0
  0
INSERT
  5
3D0
330
1F
100
AcDbEntity
  8
Capa 1
100
AcDbBlockReference
  2
block 122
 10
0.0
 20
0.0
 30
0.0
  0
INSERT
  5
3D8
330
1F
100
AcDbEntity
  8
Capa 1
100
AcDbBlockReference
  2
block 123
 10
0.0
 20
0.0
 30
0.0
  0
INSERT
  5
3DD
330
1F
100
AcDbEntity
  8
Capa 1
100
AcDbBlockReference
  2
block 124
 10
0.0
 20
0.0
 30
0.0
  0
INSERT
  5
3E2
330
1F
100
AcDbEntity
  8
Capa 1
100
AcDbBlockReference
  2
block 125
 10
0.0
 20
0.0
 30
0.0
  0
INSERT
  5
3E7
330
1F
100
AcDbEntity
  8
Capa 1
100
AcDbBlockReference
  2
block 126
 10
0.0
 20
0.0
 30
0.0
  0
INSERT
  5
42F
330
1F
100
AcDbEntity
  8
Capa 1
100
AcDbBlockReference
  2
block 127
 10
0.0
 20
0.0
 30
0.0
  0
INSERT
  5
437
330
1F
100
AcDbEntity
  8
Capa 1
100
AcDbBlockReference
  2
block 128
 10
0.0
 20
0.0
 30
0.0
  0
INSERT
  5
43C
330
1F
100
AcDbEntity
  8
Capa 1
100
AcDbBlockReference
  2
block 129
 10
0.0
 20
0.0
 30
0.0
  0
INSERT
  5
444
330
1F
100
AcDbEntity
  8
Capa 1
100
AcDbBlockReference
  2
block 130
 10
0.0
 20
0.0
 30
0.0
  0
INSERT
  5
449
330
1F
100
AcDbEntity
  8
Capa 1
100
AcDbBlockReference
  2
block 131
 10
0.0
 20
0.0
 30
0.0
  0
INSERT
  5
451
330
1F
100
AcDbEntity
  8
Capa 1
100
AcDbBlockReference
  2
block 132
 10
0.0
 20
0.0
 30
0.0
  0
INSERT
  5
459
330
1F
100
AcDbEntity
  8
Capa 1
100
AcDbBlockReference
  2
block 133
 10
0.0
 20
0.0
 30
0.0
  0
INSERT
  5
461
330
1F
100
AcDbEntity
  8
Capa 1
100
AcDbBlockReference
  2
block 134
 10
0.0
 20
0.0
 30
0.0
  0
INSERT
  5
469
330
1F
100
AcDbEntity
  8
Capa 1
100
AcDbBlockReference
  2
block 135
 10
0.0
 20
0.0
 30
0.0
  0
INSERT
  5
471
330
1F
100
AcDbEntity
  8
Capa 1
100
AcDbBlockReference
  2
block 136
 10
0.0
 20
0.0
 30
0.0
  0
INSERT
  5
479
330
1F
100
AcDbEntity
  8
Capa 1
100
AcDbBlockReference
  2
block 137
 10
0.0
 20
0.0
 30
0.0
  0
INSERT
  5
481
330
1F
100
AcDbEntity
  8
Capa 1
100
AcDbBlockReference
  2
block 138
 10
0.0
 20
0.0
 30
0.0
  0
INSERT
  5
489
330
1F
100
AcDbEntity
  8
Capa 1
100
AcDbBlockReference
  2
block 139
 10
0.0
 20
0.0
 30
0.0
  0
INSERT
  5
4BD
330
1F
100
AcDbEntity
  8
Capa 1
100
AcDbBlockReference
  2
block 140
 10
0.0
 20
0.0
 30
0.0
  0
INSERT
  5
4F5
330
1F
100
AcDbEntity
  8
Capa 1
100
AcDbBlockReference
  2
block 141
 10
0.0
 20
0.0
 30
0.0
  0
INSERT
  5
4FD
330
1F
100
AcDbEntity
  8
Capa 1
100
AcDbBlockReference
  2
block 142
 10
0.0
 20
0.0
 30
0.0
  0
INSERT
  5
505
330
1F
100
AcDbEntity
  8
Capa 1
100
AcDbBlockReference
  2
block 143
 10
0.0
 20
0.0
 30
0.0
  0
INSERT
  5
50D
330
1F
100
AcDbEntity
  8
Capa 1
100
AcDbBlockReference
  2
block 144
 10
0.0
 20
0.0
 30
0.0
  0
INSERT
  5
515
330
1F
100
AcDbEntity
  8
Capa 1
100
AcDbBlockReference
  2
block 145
 10
0.0
 20
0.0
 30
0.0
  0
INSERT
  5
51D
330
1F
100
AcDbEntity
  8
Capa 1
100
AcDbBlockReference
  2
block 146
 10
0.0
 20
0.0
 30
0.0
  0
INSERT
  5
525
330
1F
100
AcDbEntity
  8
Capa 1
100
AcDbBlockReference
  2
block 147
 10
0.0
 20
0.0
 30
0.0
  0
INSERT
  5
52D
330
1F
100
AcDbEntity
  8
Capa 1
100
AcDbBlockReference
  2
block 148
 10
0.0
 20
0.0
 30
0.0
  0
INSERT
  5
535
330
1F
100
AcDbEntity
  8
Capa 1
100
AcDbBlockReference
  2
block 149
 10
0.0
 20
0.0
 30
0.0
  0
INSERT
  5
53D
330
1F
100
AcDbEntity
  8
Capa 1
100
AcDbBlockReference
  2
block 150
 10
0.0
 20
0.0
 30
0.0
  0
INSERT
  5
545
330
1F
100
AcDbEntity
  8
Capa 1
100
AcDbBlockReference
  2
block 151
 10
0.0
 20
0.0
 30
0.0
  0
INSERT
  5
54D
330
1F
100
AcDbEntity
  8
Capa 1
100
AcDbBlockReference
  2
block 152
 10
0.0
 20
0.0
 30
0.0
  0
INSERT
  5
555
330
1F
100
AcDbEntity
  8
Capa 1
100
AcDbBlockReference
  2
block 153
 10
0.0
 20
0.0
 30
0.0
  0
INSERT
  5
55D
330
1F
100
AcDbEntity
  8
Capa 1
100
AcDbBlockReference
  2
block 154
 10
0.0
 20
0.0
 30
0.0
  0
INSERT
  5
565
330
1F
100
AcDbEntity
  8
Capa 1
100
AcDbBlockReference
  2
block 155
 10
0.0
 20
0.0
 30
0.0
  0
INSERT
  5
56D
330
1F
100
AcDbEntity
  8
Capa 1
100
AcDbBlockReference
  2
block 156
 10
0.0
 20
0.0
 30
0.0
  0
INSERT
  5
575
330
1F
100
AcDbEntity
  8
Capa 1
100
AcDbBlockReference
  2
block 157
 10
0.0
 20
0.0
 30
0.0
  0
INSERT
  5
57D
330
1F
100
AcDbEntity
  8
Capa 1
100
AcDbBlockReference
  2
block 158
 10
0.0
 20
0.0
 30
0.0
  0
INSERT
  5
585
330
1F
100
AcDbEntity
  8
Capa 1
100
AcDbBlockReference
  2
block 159
 10
0.0
 20
0.0
 30
0.0
  0
INSERT
  5
5BD
330
1F
100
AcDbEntity
  8
Capa 1
100
AcDbBlockReference
  2
block 160
 10
0.0
 20
0.0
 30
0.0
  0
INSERT
  5
5C5
330
1F
100
AcDbEntity
  8
Capa 1
100
AcDbBlockReference
  2
block 161
 10
0.0
 20
0.0
 30
0.0
  0
INSERT
  5
5CD
330
1F
100
AcDbEntity
  8
Capa 1
100
AcDbBlockReference
  2
block 162
 10
0.0
 20
0.0
 30
0.0
  0
INSERT
  5
5D5
330
1F
100
AcDbEntity
  8
Capa 1
100
AcDbBlockReference
  2
block 163
 10
0.0
 20
0.0
 30
0.0
  0
INSERT
  5
5DD
330
1F
100
AcDbEntity
  8
Capa 1
100
AcDbBlockReference
  2
block 164
 10
0.0
 20
0.0
 30
0.0
  0
ENDSEC
  0
SECTION
  2
OBJECTS
  0
DICTIONARY
  5
C
330
0
100
AcDbDictionary
281
     1
  3
ACAD_GROUP
350
D
  3
ACAD_LAYOUT
350
1A
  3
ACAD_MLINESTYLE
350
17
  3
ACAD_PLOTSETTINGS
350
19
  3
ACAD_PLOTSTYLENAME
350
E
  3
ACAD_TABLESTYLE
350
5E2
  3
ACAD_VISUALSTYLE
350
2A
  0
DICTIONARY
  5
D
102
{ACAD_REACTORS
330
C
102
}
330
C
100
AcDbDictionary
281
     1
  0
DICTIONARY
  5
1A
102
{ACAD_REACTORS
330
C
102
}
330
C
100
AcDbDictionary
281
     1
  3
Layout1
350
1E
  3
Layout2
350
26
  3
Model
350
22
  0
DICTIONARY
  5
17
102
{ACAD_REACTORS
330
C
102
}
330
C
100
AcDbDictionary
281
     1
  3
Standard
350
18
  0
DICTIONARY
  5
19
102
{ACAD_REACTORS
330
C
102
}
330
C
100
AcDbDictionary
281
     1
  0
ACDBDICTIONARYWDFLT
  5
E
102
{ACAD_REACTORS
330
C
102
}
330
C
100
AcDbDictionary
281
     1
  3
Normal
350
F
100
AcDbDictionaryWithDefault
340
F
  0
DICTIONARY
  5
5E2
102
{ACAD_REACTORS
330
C
102
}
330
C
100
AcDbDictionary
281
     1
  0
DICTIONARY
  5
2A
102
{ACAD_REACTORS
330
C
102
}
330
C
100
AcDbDictionary
281
     1
  3
2dWireframe
350
2F
  3
3D Hidden
350
31
  3
3dWireframe
350
30
  3
Basic
350
32
  3
Brighten
350
36
  3
ColorChange
350
3A
  3
Conceptual
350
34
  3
Dim
350
35
  3
Facepattern
350
39
  3
Flat
350
2B
  3
FlatWithEdges
350
2C
  3
Gouraud
350
2D
  3
GouraudWithEdges
350
2E
  3
Linepattern
350
38
  3
Realistic
350
33
  3
Thicken
350
37
  0
LAYOUT
  5
1E
102
{ACAD_REACTORS
330
1A
102
}
330
1A
100
AcDbPlotSettings
  1

  2
none_device
  4

  6

 40
0.0
 41
0.0
 42
0.0
 43
0.0
 44
0.0
 45
0.0
 46
0.0
 47
0.0
 48
0.0
 49
0.0
140
0.0
141
0.0
142
1.0
143
1.0
 70
   688
 72
     0
 73
     0
 74
     5
  7

 75
    16
 76
     0
 77
     2
 78
   300
147
1.0
148
0.0
149
0.0
100
AcDbLayout
  1
Layout1
 70
     1
 71
     1
 10
0.0
 20
0.0
 11
12.0
 21
9.0
 12
0.0
 22
0.0
 32
0.0
 14
1.000000000000000E+20
 24
1.000000000000000E+20
 34
1.000000000000000E+20
 15
-1.000000000000000E+20
 25
-1.000000000000000E+20
 35
-1.000000000000000E+20
146
0.0
 13
0.0
 23
0.0
 33
0.0
 16
1.0
 26
0.0
 36
0.0
 17
0.0
 27
1.0
 37
0.0
 76
     0
330
1B
  0
LAYOUT
  5
26
102
{ACAD_REACTORS
330
1A
102
}
330
1A
100
AcDbPlotSettings
  1

  2
none_device
  4

  6

 40
0.0
 41
0.0
 42
0.0
 43
0.0
 44
0.0
 45
0.0
 46
0.0
 47
0.0
 48
0.0
 49
0.0
140
0.0
141
0.0
142
1.0
143
1.0
 70
   688
 72
     0
 73
     0
 74
     5
  7

 75
    16
 76
     0
 77
     2
 78
   300
147
1.0
148
0.0
149
0.0
100
AcDbLayout
  1
Layout2
 70
     1
 71
     2
 10
0.0
 20
0.0
 11
0.0
 21
0.0
 12
0.0
 22
0.0
 32
0.0
 14
0.0
 24
0.0
 34
0.0
 15
0.0
 25
0.0
 35
0.0
146
0.0
 13
0.0
 23
0.0
 33
0.0
 16
1.0
 26
0.0
 36
0.0
 17
0.0
 27
1.0
 37
0.0
 76
     0
330
23
  0
LAYOUT
  5
22
102
{ACAD_REACTORS
330
1A
102
}
330
1A
100
AcDbPlotSettings
  1

  2
none_device
  4

  6

 40
0.0
 41
0.0
 42
0.0
 43
0.0
 44
0.0
 45
0.0
 46
0.0
 47
0.0
 48
0.0
 49
0.0
140
0.0
141
0.0
142
1.0
143
1.0
 70
  1712
 72
     0
 73
     0
 74
     0
  7

 75
     0
 76
     0
 77
     2
 78
   300
147
1.0
148
0.0
149
0.0
100
AcDbLayout
  1
Model
 70
     1
 71
     0
 10
0.0
 20
0.0
 11
12.0
 21
9.0
 12
0.0
 22
0.0
 32
0.0
 14
1.000000000000000E+20
 24
1.000000000000000E+20
 34
1.000000000000000E+20
 15
-1.000000000000000E+20
 25
-1.000000000000000E+20
 35
-1.000000000000000E+20
146
0.0
 13
0.0
 23
0.0
 33
0.0
 16
1.0
 26
0.0
 36
0.0
 17
0.0
 27
1.0
 37
0.0
 76
     0
330
1F
331
29
  0
MLINESTYLE
  5
18
102
{ACAD_REACTORS
330
17
102
}
330
17
100
AcDbMlineStyle
  2
Standard
 70
     0
  3

 62
   256
 51
90.0
 52
90.0
 71
     2
 49
0.5
 62
   256
  6
BYLAYER
 49
-0.5
 62
   256
  6
BYLAYER
  0
ACDBPLACEHOLDER
  5
F
102
{ACAD_REACTORS
330
E
102
}
330
E
  0
VISUALSTYLE
  5
2F
102
{ACAD_REACTORS
330
2A
102
}
330
2A
100
AcDbVisualStyle
  2
2dWireframe
 70
     4
 71
     0
 72
     2
 73
     0
 90
        0
 40
-0.6
 41
-30.0
 62
     5
 63
     7
421
 16777215
 74
     1
 91
        4
 64
     7
 65
   257
 75
     1
175
     1
 42
1.0
 92
        0
 66
   257
 43
1.0
 76
     1
 77
     6
 78
     2
 67
     7
 79
     5
170
     0
171
     0
290
     0
174
     0
 93
        1
 44
0.0
173
     0
291
     0
 45
0.0
1001
ACAD
1000
AcDbSavedByObjectVersion
1070
     0
  0
VISUALSTYLE
  5
31
102
{ACAD_REACTORS
330
2A
102
}
330
2A
100
AcDbVisualStyle
  2
3D Hidden
 70
     6
 71
     1
 72
     2
 73
     2
 90
        0
 40
-0.6
 41
-30.0
 62
     5
 63
     7
421
 16777215
 74
     2
 91
        2
 64
     7
 65
   257
 75
     2
175
     1
 42
40.0
 92
        0
 66
   257
 43
1.0
 76
     1
 77
     6
 78
     2
 67
     7
 79
     3
170
     0
171
     0
290
     0
174
     0
 93
        1
 44
0.0
173
     0
291
     0
 45
0.0
1001
ACAD
1000
AcDbSavedByObjectVersion
1070
     0
  0
VISUALSTYLE
  5
30
102
{ACAD_REACTORS
330
2A
102
}
330
2A
100
AcDbVisualStyle
  2
3dWireframe
 70
     5
 71
     0
 72
     2
 73
     0
 90
        0
 40
-0.6
 41
-30.0
 62
     5
 63
     7
421
 16777215
 74
     1
 91
        4
 64
     7
 65
   257
 75
     1
175
     1
 42
1.0
 92
        0
 66
   257
 43
1.0
 76
     1
 77
     6
 78
     2
 67
     7
 79
     5
170
     0
171
     0
290
     0
174
     0
 93
        1
 44
0.0
173
     0
291
     0
 45
0.0
1001
ACAD
1000
AcDbSavedByObjectVersion
1070
     0
  0
VISUALSTYLE
  5
32
102
{ACAD_REACTORS
330
2A
102
}
330
2A
100
AcDbVisualStyle
  2
Basic
 70
     7
 71
     1
 72
     0
 73
     1
 90
        0
 40
-0.6
 41
-30.0
 62
     5
 63
     7
421
 16777215
 74
     0
 91
        4
 64
     7
 65
   257
 75
     1
175
     1
 42
1.0
 92
        8
 66
     7
 43
1.0
 76
     1
 77
     6
 78
     2
 67
     7
 79
     5
170
     0
171
     0
290
     0
174
     0
 93
        1
 44
0.0
173
     0
291
     1
 45
0.0
1001
ACAD
1000
AcDbSavedByObjectVersion
1070
     0
  0
VISUALSTYLE
  5
36
102
{ACAD_REACTORS
330
2A
102
}
330
2A
100
AcDbVisualStyle
  2
Brighten
 70
    12
 71
     2
 72
     2
 73
     0
 90
        0
 40
-0.6
 41
-30.0
 62
     5
 63
     7
421
 16777215
 74
     1
 91
        4
 64
     7
 65
   257
 75
     1
175
     1
 42
1.0
 92
        8
 66
     7
 43
1.0
 76
     1
 77
     6
 78
     2
 67
     7
 79
     5
170
     0
171
     0
290
     0
174
     0
 93
        1
 44
50.0
173
     0
291
     1
 45
0.0
1001
ACAD
1000
AcDbSavedByObjectVersion
1070
     0
  0
VISUALSTYLE
  5
3A
102
{ACAD_REACTORS
330
2A
102
}
330
2A
100
AcDbVisualStyle
  2
ColorChange
 70
    16
 71
     2
 72
     2
 73
     3
 90
        0
 40
-0.6
 41
-30.0
 62
     5
 63
     8
421
  8421504
 74
     1
 91
        4
 64
     7
 65
   257
 75
     1
175
     1
 42
1.0
 92
        8
 66
     8
424
  8421504
 43
1.0
 76
     1
 77
     6
 78
     2
 67
     7
 79
     5
170
     0
171
     0
290
     0
174
     0
 93
        1
 44
0.0
173
     0
291
     1
 45
0.0
1001
ACAD
1000
AcDbSavedByObjectVersion
1070
     0
  0
VISUALSTYLE
  5
34
102
{ACAD_REACTORS
330
2A
102
}
330
2A
100
AcDbVisualStyle
  2
Conceptual
 70
     9
 71
     3
 72
     2
 73
     0
 90
        0
 40
-0.6
 41
-30.0
 62
     5
 63
     7
421
 16777215
 74
     2
 91
        2
 64
     7
 65
   257
 75
     1
175
     1
 42
40.0
 92
        8
 66
     7
 43
1.0
 76
     1
 77
     6
 78
     2
 67
     7
 79
     3
170
     0
171
     0
290
     0
174
     0
 93
        1
 44
0.0
173
     0
291
     0
 45
0.0
1001
ACAD
1000
AcDbSavedByObjectVersion
1070
     0
  0
VISUALSTYLE
  5
35
102
{ACAD_REACTORS
330
2A
102
}
330
2A
100
AcDbVisualStyle
  2
Dim
 70
    11
 71
     2
 72
     2
 73
     0
 90
        0
 40
-0.6
 41
-30.0
 62
     5
 63
     7
421
 16777215
 74
     1
 91
        4
 64
     7
 65
   257
 75
     1
175
     1
 42
1.0
 92
        8
 66
     7
 43
1.0
 76
     1
 77
     6
 78
     2
 67
     7
 79
     5
170
     0
171
     0
290
     0
174
     0
 93
        1
 44
-50.0
173
     0
291
     1
 45
0.0
1001
ACAD
1000
AcDbSavedByObjectVersion
1070
     0
  0
VISUALSTYLE
  5
39
102
{ACAD_REACTORS
330
2A
102
}
330
2A
100
AcDbVisualStyle
  2
Facepattern
 70
    15
 71
     2
 72
     2
 73
     0
 90
        0
 40
-0.6
 41
-30.0
 62
     5
 63
     7
421
 16777215
 74
     1
 91
        4
 64
     7
 65
   257
 75
     1
175
     1
 42
1.0
 92
        8
 66
     7
 43
1.0
 76
     1
 77
     6
 78
     2
 67
     7
 79
     5
170
     0
171
     0
290
     0
174
     0
 93
        1
 44
0.0
173
     0
291
     1
 45
0.0
1001
ACAD
1000
AcDbSavedByObjectVersion
1070
     0
  0
VISUALSTYLE
  5
2B
102
{ACAD_REACTORS
330
2A
102
}
330
2A
100
AcDbVisualStyle
  2
Flat
 70
     0
 71
     2
 72
     1
 73
     1
 90
        2
 40
-0.6
 41
30.0
 62
     5
 63
     7
421
 16777215
 74
     0
 91
        4
 64
     7
 65
   257
 75
     1
175
     1
 42
1.0
 92
        8
 66
     7
 43
1.0
 76
     1
 77
     6
 78
     2
 67
     7
 79
     5
170
     0
171
     0
290
     0
174
     0
 93
       13
 44
0.0
173
     0
291
     1
 45
0.0
1001
ACAD
1000
AcDbSavedByObjectVersion
1070
     0
  0
VISUALSTYLE
  5
2C
102
{ACAD_REACTORS
330
2A
102
}
330
2A
100
AcDbVisualStyle
  2
FlatWithEdges
 70
     1
 71
     2
 72
     1
 73
     1
 90
        2
 40
-0.6
 41
30.0
 62
     5
 63
     7
421
 16777215
 74
     1
 91
        4
 64
     7
 65
   257
 75
     1
175
     1
 42
1.0
 92
        0
 66
   257
 43
1.0
 76
     1
 77
     6
 78
     2
 67
     7
 79
     5
170
     0
171
     0
290
     0
174
     0
 93
       13
 44
0.0
173
     0
291
     1
 45
0.0
1001
ACAD
1000
AcDbSavedByObjectVersion
1070
     0
  0
VISUALSTYLE
  5
2D
102
{ACAD_REACTORS
330
2A
102
}
330
2A
100
AcDbVisualStyle
  2
Gouraud
 70
     2
 71
     2
 72
     2
 73
     1
 90
        2
 40
-0.6
 41
30.0
 62
     5
 63
     7
421
 16777215
 74
     0
 91
        4
 64
     7
 65
   257
 75
     1
175
     1
 42
1.0
 92
        0
 66
     7
 43
1.0
 76
     1
 77
     6
 78
     2
 67
     7
 79
     5
170
     0
171
     0
290
     0
174
     0
 93
       13
 44
0.0
173
     0
291
     1
 45
0.0
1001
ACAD
1000
AcDbSavedByObjectVersion
1070
     0
  0
VISUALSTYLE
  5
2E
102
{ACAD_REACTORS
330
2A
102
}
330
2A
100
AcDbVisualStyle
  2
GouraudWithEdges
 70
     3
 71
     2
 72
     2
 73
     1
 90
        2
 40
-0.6
 41
30.0
 62
     5
 63
     7
421
 16777215
 74
     1
 91
        4
 64
     7
 65
   257
 75
     1
175
     1
 42
1.0
 92
        0
 66
   257
 43
1.0
 76
     1
 77
     6
 78
     2
 67
     7
 79
     5
170
     0
171
     0
290
     0
174
     0
 93
       13
 44
0.0
173
     0
291
     1
 45
0.0
1001
ACAD
1000
AcDbSavedByObjectVersion
1070
     0
  0
VISUALSTYLE
  5
38
102
{ACAD_REACTORS
330
2A
102
}
330
2A
100
AcDbVisualStyle
  2
Linepattern
 70
    14
 71
     2
 72
     2
 73
     0
 90
        0
 40
-0.6
 41
-30.0
 62
     5
 63
     7
421
 16777215
 74
     1
 91
        4
 64
     7
 65
   257
 75
     7
175
     7
 42
1.0
 92
        8
 66
     7
 43
1.0
 76
     1
 77
     6
 78
     2
 67
     7
 79
     5
170
     0
171
     0
290
     0
174
     0
 93
        1
 44
0.0
173
     0
291
     1
 45
0.0
1001
ACAD
1000
AcDbSavedByObjectVersion
1070
     0
  0
VISUALSTYLE
  5
33
102
{ACAD_REACTORS
330
2A
102
}
330
2A
100
AcDbVisualStyle
  2
Realistic
 70
     8
 71
     2
 72
     2
 73
     0
 90
        0
 40
-0.6
 41
-30.0
 62
     5
 63
     7
421
 16777215
 74
     1
 91
        0
 64
     7
 65
   257
 75
     1
175
     1
 42
1.0
 92
        8
 66
     8
424
  7895160
 43
1.0
 76
     1
 77
     6
 78
     2
 67
     7
 79
     5
170
     0
171
     0
290
     0
174
     0
 93
       13
 44
0.0
173
     0
291
     0
 45
0.0
1001
ACAD
1000
AcDbSavedByObjectVersion
1070
     0
  0
VISUALSTYLE
  5
37
102
{ACAD_REACTORS
330
2A
102
}
330
2A
100
AcDbVisualStyle
  2
Thicken
 70
    13
 71
     2
 72
     2
 73
     0
 90
        0
 40
-0.6
 41
-30.0
 62
     5
 63
     7
421
 16777215
 74
     1
 91
        4
 64
     7
 65
   257
 75
     1
175
     1
 42
1.0
 92
       12
 66
     7
 43
1.0
 76
     1
 77
     6
 78
     2
 67
     7
 79
     5
170
     0
171
     0
290
     0
174
     0
 93
        1
 44
0.0
173
     0
291
     1
 45
0.0
1001
ACAD
1000
AcDbSavedByObjectVersion
1070
     0
  0
ENDSEC
  0
EOF
