  0
SECTION
  2
HEADER
  9
$ACADVER
  1
AC1018
  9
$ACADMAINTVER
 70
     0
  9
$DWGCODEPAGE
  3
ANSI_1252
  9
$INSBASE
 10
0.0
 20
0.0
 30
0.0
  9
$EXTMIN
 10
1.000000000000000E+20
 20
1.000000000000000E+20
 30
1.000000000000000E+20
  9
$EXTMAX
 10
-1.000000000000000E+20
 20
-1.000000000000000E+20
 30
-1.000000000000000E+20
  9
$LIMMIN
 10
0.0
 20
0.0
  9
$LIMMAX
 10
12.0
 20
9.0
  9
$ORTHOMODE
 70
     0
  9
$REGENMODE
 70
     1
  9
$FILLMODE
 70
     1
  9
$QTEXTMODE
 70
     0
  9
$MIRRTEXT
 70
     1
  9
$LTSCALE
 40
1.0
  9
$ATTMODE
 70
     1
  9
$TEXTSIZE
 40
0.2
  9
$TRACEWID
 40
0.05
  9
$TEXTSTYLE
  7
Standard
  9
$CLAYER
  8
0
  9
$CELTYPE
  6
ByLayer
  9
$CECOLOR
 62
   256
  9
$CELTSCALE
 40
1.0
  9
$DISPSILH
 70
     0
  9
$DIMSCALE
 40
1.0
  9
$DIMASZ
 40
0.18
  9
$DIMEXO
 40
0.0625
  9
$DIMDLI
 40
0.38
  9
$DIMRND
 40
0.0
  9
$DIMDLE
 40
0.0
  9
$DIMEXE
 40
0.18
  9
$DIMTP
 40
0.0
  9
$DIMTM
 40
0.0
  9
$DIMTXT
 40
0.18
  9
$DIMCEN
 40
0.09
  9
$DIMTSZ
 40
0.0
  9
$DIMTOL
 70
     0
  9
$DIMLIM
 70
     0
  9
$DIMTIH
 70
     1
  9
$DIMTOH
 70
     1
  9
$DIMSE1
 70
     0
  9
$DIMSE2
 70
     0
  9
$DIMTAD
 70
     0
  9
$DIMZIN
 70
     0
  9
$DIMBLK
  1

  9
$DIMASO
 70
     1
  9
$DIMSHO
 70
     1
  9
$DIMPOST
  1

  9
$DIMAPOST
  1

  9
$DIMALT
 70
     0
  9
$DIMALTD
 70
     2
  9
$DIMALTF
 40
25.4
  9
$DIMLFAC
 40
1.0
  9
$DIMTOFL
 70
     0
  9
$DIMTVP
 40
0.0
  9
$DIMTIX
 70
     0
  9
$DIMSOXD
 70
     0
  9
$DIMSAH
 70
     0
  9
$DIMBLK1
  1

  9
$DIMBLK2
  1

  9
$DIMSTYLE
  2
Standard
  9
$DIMCLRD
 70
     0
  9
$DIMCLRE
 70
     0
  9
$DIMCLRT
 70
     0
  9
$DIMTFAC
 40
1.0
  9
$DIMGAP
 40
0.09
  9
$DIMJUST
 70
     0
  9
$DIMSD1
 70
     0
  9
$DIMSD2
 70
     0
  9
$DIMTOLJ
 70
     1
  9
$DIMTZIN
 70
     0
  9
$DIMALTZ
 70
     0
  9
$DIMALTTZ
 70
     0
  9
$DIMUPT
 70
     0
  9
$DIMDEC
 70
     4
  9
$DIMTDEC
 70
     4
  9
$DIMALTU
 70
     2
  9
$DIMALTTD
 70
     2
  9
$DIMTXSTY
  7
Standard
  9
$DIMAUNIT
 70
     0
  9
$DIMADEC
 70
     0
  9
$DIMALTRND
 40
0.0
  9
$DIMAZIN
 70
     0
  9
$DIMDSEP
 70
    46
  9
$DIMATFIT
 70
     3
  9
$DIMFRAC
 70
     0
  9
$DIMLDRBLK
  1

  9
$DIMLUNIT
 70
     2
  9
$DIMLWD
 70
    -2
  9
$DIMLWE
 70
    -2
  9
$DIMTMOVE
 70
     0
  9
$LUNITS
 70
     2
  9
$LUPREC
 70
     4
  9
$SKETCHINC
 40
0.1
  9
$FILLETRAD
 40
0.5
  9
$AUNITS
 70
     0
  9
$AUPREC
 70
     0
  9
$MENU
  1
.
  9
$ELEVATION
 40
0.0
  9
$PELEVATION
 40
0.0
  9
$THICKNESS
 40
0.0
  9
$LIMCHECK
 70
     0
  9
$CHAMFERA
 40
0.5
  9
$CHAMFERB
 40
0.5
  9
$CHAMFERC
 40
1.0
  9
$CHAMFERD
 40
0.0
  9
$SKPOLY
 70
     0
  9
$TDCREATE
 40
2457567.529244282
  9
$TDUCREATE
 40
2457567.445910949
  9
$TDUPDATE
 40
2457567.529244294
  9
$TDUUPDATE
 40
2457567.44591096
  9
$TDINDWG
 40
0.0000000116
  9
$TDUSRTIMER
 40
0.0000000116
  9
$USRTIMER
 70
     1
  9
$ANGBASE
 50
0.0
  9
$ANGDIR
 70
     0
  9
$PDMODE
 70
     0
  9
$PDSIZE
 40
0.0
  9
$PLINEWID
 40
0.0
  9
$SPLFRAME
 70
     0
  9
$SPLINETYPE
 70
     6
  9
$SPLINESEGS
 70
     8
  9
$HANDSEED
  5
6DE
  9
$SURFTAB1
 70
     6
  9
$SURFTAB2
 70
     6
  9
$SURFTYPE
 70
     6
  9
$SURFU
 70
     6
  9
$SURFV
 70
     6
  9
$UCSBASE
  2

  9
$UCSNAME
  2

  9
$UCSORG
 10
0.0
 20
0.0
 30
0.0
  9
$UCSXDIR
 10
1.0
 20
0.0
 30
0.0
  9
$UCSYDIR
 10
0.0
 20
1.0
 30
0.0
  9
$UCSORTHOREF
  2

  9
$UCSORTHOVIEW
 70
     0
  9
$UCSORGTOP
 10
0.0
 20
0.0
 30
0.0
  9
$UCSORGBOTTOM
 10
0.0
 20
0.0
 30
0.0
  9
$UCSORGLEFT
 10
0.0
 20
0.0
 30
0.0
  9
$UCSORGRIGHT
 10
0.0
 20
0.0
 30
0.0
  9
$UCSORGFRONT
 10
0.0
 20
0.0
 30
0.0
  9
$UCSORGBACK
 10
0.0
 20
0.0
 30
0.0
  9
$PUCSBASE
  2

  9
$PUCSNAME
  2

  9
$PUCSORG
 10
0.0
 20
0.0
 30
0.0
  9
$PUCSXDIR
 10
1.0
 20
0.0
 30
0.0
  9
$PUCSYDIR
 10
0.0
 20
1.0
 30
0.0
  9
$PUCSORTHOREF
  2

  9
$PUCSORTHOVIEW
 70
     0
  9
$PUCSORGTOP
 10
0.0
 20
0.0
 30
0.0
  9
$PUCSORGBOTTOM
 10
0.0
 20
0.0
 30
0.0
  9
$PUCSORGLEFT
 10
0.0
 20
0.0
 30
0.0
  9
$PUCSORGRIGHT
 10
0.0
 20
0.0
 30
0.0
  9
$PUCSORGFRONT
 10
0.0
 20
0.0
 30
0.0
  9
$PUCSORGBACK
 10
0.0
 20
0.0
 30
0.0
  9
$USERI1
 70
     0
  9
$USERI2
 70
     0
  9
$USERI3
 70
     0
  9
$USERI4
 70
     0
  9
$USERI5
 70
     0
  9
$USERR1
 40
0.0
  9
$USERR2
 40
0.0
  9
$USERR3
 40
0.0
  9
$USERR4
 40
0.0
  9
$USERR5
 40
0.0
  9
$WORLDVIEW
 70
     1
  9
$SHADEDGE
 70
     3
  9
$SHADEDIF
 70
    70
  9
$TILEMODE
 70
     1
  9
$MAXACTVP
 70
    64
  9
$PINSBASE
 10
0.0
 20
0.0
 30
0.0
  9
$PLIMCHECK
 70
     0
  9
$PEXTMIN
 10
1.000000000000000E+20
 20
1.000000000000000E+20
 30
1.000000000000000E+20
  9
$PEXTMAX
 10
-1.000000000000000E+20
 20
-1.000000000000000E+20
 30
-1.000000000000000E+20
  9
$PLIMMIN
 10
0.0
 20
0.0
  9
$PLIMMAX
 10
12.0
 20
9.0
  9
$UNITMODE
 70
     0
  9
$VISRETAIN
 70
     1
  9
$PLINEGEN
 70
     0
  9
$PSLTSCALE
 70
     1
  9
$TREEDEPTH
 70
  3020
  9
$CMLSTYLE
  2
Standard
  9
$CMLJUST
 70
     0
  9
$CMLSCALE
 40
1.0
  9
$PROXYGRAPHICS
 70
     1
  9
$MEASUREMENT
 70
     0
  9
$CELWEIGHT
370
    -1
  9
$ENDCAPS
280
     0
  9
$JOINSTYLE
280
     0
  9
$LWDISPLAY
290
     1
  9
$INSUNITS
 70
     1
  9
$HYPERLINKBASE
  1

  9
$STYLESHEET
  1

  9
$XEDIT
290
     1
  9
$CEPSNTYPE
380
     0
  9
$PSTYLEMODE
290
     1
  9
$FINGERPRINTGUID
  2
{97C63704-4673-42B2-9F49-EFF52A4AFCA6}
  9
$VERSIONGUID
  2
{FAEB1C32-E019-11D5-929B-00C0DF256EC4}
  9
$EXTNAMES
290
     1
  9
$PSVPSCALE
 40
0.0
  9
$OLESTARTUP
290
     0
  9
$SORTENTS
280
   127
  9
$INDEXCTL
280
     0
  9
$HIDETEXT
280
     1
  9
$XCLIPFRAME
290
     0
  9
$HALOGAP
280
     0
  9
$OBSCOLOR
 70
   257
  9
$OBSLTYPE
280
     0
  9
$INTERSECTIONDISPLAY
280
     0
  9
$INTERSECTIONCOLOR
 70
   257
  9
$DIMASSOC
280
     2
  9
$PROJECTNAME
  1

  0
ENDSEC
  0
SECTION
  2
CLASSES
  0
CLASS
  1
ACDBDICTIONARYWDFLT
  2
AcDbDictionaryWithDefault
  3
ObjectDBX Classes
 90
        0
 91
        3
280
     0
281
     0
  0
CLASS
  1
VISUALSTYLE
  2
AcDbVisualStyle
  3
ObjectDBX Classes
 90
     4095
 91
        3
280
     0
281
     0
  0
ENDSEC
  0
SECTION
  2
TABLES
  0
TABLE
  2
VPORT
  5
8
330
0
100
AcDbSymbolTable
 70
     1
  0
VPORT
  5
29
330
8
100
AcDbSymbolTableRecord
100
AcDbViewportTableRecord
  2
*Active
 70
     0
 10
0.0
 20
0.0
 11
1.0
 21
1.0
 12
0.0
 22
0.0
 13
0.0
 23
0.0
 14
0.5
 24
0.5
 15
0.5
 25
0.5
 16
0.0
 26
0.0
 36
1.0
 17
172.531982421875
 27
148.820068359375
 37
0.0
 40
297.64013671875
 41
1.159332772279339
 42
50.0
 43
0.0
 44
0.0
 50
0.0
 51
0.0
 71
     0
 72
   100
 73
     1
 74
     3
 75
     0
 76
     0
 77
     0
 78
     0
281
     0
 65
     1
110
0.0
120
0.0
130
0.0
111
1.0
121
0.0
131
0.0
112
0.0
122
1.0
132
0.0
 79
     0
146
0.0
  0
ENDTAB
  0
TABLE
  2
LTYPE
  5
5
330
0
100
AcDbSymbolTable
 70
     1
  0
LTYPE
  5
14
330
5
100
AcDbSymbolTableRecord
100
AcDbLinetypeTableRecord
  2
ByBlock
 70
     0
  3

 72
    65
 73
     0
 40
0.0
  0
LTYPE
  5
15
330
5
100
AcDbSymbolTableRecord
100
AcDbLinetypeTableRecord
  2
ByLayer
 70
     0
  3

 72
    65
 73
     0
 40
0.0
  0
LTYPE
  5
16
330
5
100
AcDbSymbolTableRecord
100
AcDbLinetypeTableRecord
  2
Continuous
 70
     0
  3
Solid line
 72
    65
 73
     0
 40
0.0
  0
ENDTAB
  0
TABLE
  2
LAYER
  5
2
330
0
100
AcDbSymbolTable
 70
     3
  0
LAYER
  5
10
330
2
100
AcDbSymbolTableRecord
100
AcDbLayerTableRecord
  2
0
 70
     0
 62
     7
  6
Continuous
370
    -3
390
F
  0
LAYER
  5
3B
330
2
100
AcDbSymbolTableRecord
100
AcDbLayerTableRecord
  2
cuerpo
 70
     0
 62
     7
  6
Continuous
370
    -3
390
F
  0
LAYER
  5
45B
330
2
100
AcDbSymbolTableRecord
100
AcDbLayerTableRecord
  2
cotas
 70
     1
 62
     7
  6
Continuous
370
    -3
390
F
  0
ENDTAB
  0
TABLE
  2
STYLE
  5
3
330
0
100
AcDbSymbolTable
 70
     1
  0
STYLE
  5
11
330
3
100
AcDbSymbolTableRecord
100
AcDbTextStyleTableRecord
  2
Standard
 70
     0
 40
0.0
 41
1.0
 50
0.0
 71
     0
 42
0.2
  3
txt
  4

  0
ENDTAB
  0
TABLE
  2
VIEW
  5
6
330
0
100
AcDbSymbolTable
 70
     0
  0
ENDTAB
  0
TABLE
  2
UCS
  5
7
330
0
100
AcDbSymbolTable
 70
     0
  0
ENDTAB
  0
TABLE
  2
APPID
  5
9
330
0
100
AcDbSymbolTable
 70
     1
  0
APPID
  5
12
330
9
100
AcDbSymbolTableRecord
100
AcDbRegAppTableRecord
  2
ACAD
 70
     0
  0
ENDTAB
  0
TABLE
  2
DIMSTYLE
  5
A
330
0
100
AcDbSymbolTable
 70
     1
100
AcDbDimStyleTable
  0
DIMSTYLE
105
27
330
A
100
AcDbSymbolTableRecord
100
AcDbDimStyleTableRecord
  2
Standard
 70
     0
340
11
  0
ENDTAB
  0
TABLE
  2
BLOCK_RECORD
  5
1
330
0
100
AcDbSymbolTable
 70
   227
  0
BLOCK_RECORD
  5
1F
330
1
100
AcDbSymbolTableRecord
100
AcDbBlockTableRecord
  2
*Model_Space
340
22
  0
BLOCK_RECORD
  5
1B
330
1
100
AcDbSymbolTableRecord
100
AcDbBlockTableRecord
  2
*Paper_Space
340
1E
  0
BLOCK_RECORD
  5
23
330
1
100
AcDbSymbolTableRecord
100
AcDbBlockTableRecord
  2
*Paper_Space0
340
26
  0
BLOCK_RECORD
  5
3C
330
1
100
AcDbSymbolTableRecord
100
AcDbBlockTableRecord
  2
block 2
340
0
102
{BLKREFS
331
3D
102
}
  0
BLOCK_RECORD
  5
41
330
1
100
AcDbSymbolTableRecord
100
AcDbBlockTableRecord
  2
block 3
340
0
102
{BLKREFS
331
42
102
}
  0
BLOCK_RECORD
  5
49
330
1
100
AcDbSymbolTableRecord
100
AcDbBlockTableRecord
  2
block 4
340
0
102
{BLKREFS
331
4A
102
}
  0
BLOCK_RECORD
  5
51
330
1
100
AcDbSymbolTableRecord
100
AcDbBlockTableRecord
  2
block 5
340
0
102
{BLKREFS
331
52
102
}
  0
BLOCK_RECORD
  5
59
330
1
100
AcDbSymbolTableRecord
100
AcDbBlockTableRecord
  2
block 6
340
0
102
{BLKREFS
331
5A
102
}
  0
BLOCK_RECORD
  5
61
330
1
100
AcDbSymbolTableRecord
100
AcDbBlockTableRecord
  2
block 7
340
0
102
{BLKREFS
331
62
102
}
  0
BLOCK_RECORD
  5
69
330
1
100
AcDbSymbolTableRecord
100
AcDbBlockTableRecord
  2
block 8
340
0
102
{BLKREFS
331
6A
102
}
  0
BLOCK_RECORD
  5
71
330
1
100
AcDbSymbolTableRecord
100
AcDbBlockTableRecord
  2
block 9
340
0
102
{BLKREFS
331
72
102
}
  0
BLOCK_RECORD
  5
79
330
1
100
AcDbSymbolTableRecord
100
AcDbBlockTableRecord
  2
block 10
340
0
102
{BLKREFS
331
7A
102
}
  0
BLOCK_RECORD
  5
81
330
1
100
AcDbSymbolTableRecord
100
AcDbBlockTableRecord
  2
block 11
340
0
102
{BLKREFS
331
82
102
}
  0
BLOCK_RECORD
  5
89
330
1
100
AcDbSymbolTableRecord
100
AcDbBlockTableRecord
  2
block 12
340
0
102
{BLKREFS
331
8A
102
}
  0
BLOCK_RECORD
  5
91
330
1
100
AcDbSymbolTableRecord
100
AcDbBlockTableRecord
  2
block 13
340
0
102
{BLKREFS
331
92
102
}
  0
BLOCK_RECORD
  5
99
330
1
100
AcDbSymbolTableRecord
100
AcDbBlockTableRecord
  2
block 14
340
0
102
{BLKREFS
331
9A
102
}
  0
BLOCK_RECORD
  5
A1
330
1
100
AcDbSymbolTableRecord
100
AcDbBlockTableRecord
  2
block 15
340
0
102
{BLKREFS
331
A2
102
}
  0
BLOCK_RECORD
  5
A9
330
1
100
AcDbSymbolTableRecord
100
AcDbBlockTableRecord
  2
block 16
340
0
102
{BLKREFS
331
AA
102
}
  0
BLOCK_RECORD
  5
B1
330
1
100
AcDbSymbolTableRecord
100
AcDbBlockTableRecord
  2
block 17
340
0
102
{BLKREFS
331
B2
102
}
  0
BLOCK_RECORD
  5
B9
330
1
100
AcDbSymbolTableRecord
100
AcDbBlockTableRecord
  2
block 18
340
0
102
{BLKREFS
331
BA
102
}
  0
BLOCK_RECORD
  5
C1
330
1
100
AcDbSymbolTableRecord
100
AcDbBlockTableRecord
  2
block 19
340
0
102
{BLKREFS
331
C2
102
}
  0
BLOCK_RECORD
  5
C9
330
1
100
AcDbSymbolTableRecord
100
AcDbBlockTableRecord
  2
block 20
340
0
102
{BLKREFS
331
CA
102
}
  0
BLOCK_RECORD
  5
D1
330
1
100
AcDbSymbolTableRecord
100
AcDbBlockTableRecord
  2
block 21
340
0
102
{BLKREFS
331
D2
102
}
  0
BLOCK_RECORD
  5
D6
330
1
100
AcDbSymbolTableRecord
100
AcDbBlockTableRecord
  2
block 22
340
0
102
{BLKREFS
331
D7
102
}
  0
BLOCK_RECORD
  5
DE
330
1
100
AcDbSymbolTableRecord
100
AcDbBlockTableRecord
  2
block 23
340
0
102
{BLKREFS
331
DF
102
}
  0
BLOCK_RECORD
  5
E6
330
1
100
AcDbSymbolTableRecord
100
AcDbBlockTableRecord
  2
block 24
340
0
102
{BLKREFS
331
E7
102
}
  0
BLOCK_RECORD
  5
EE
330
1
100
AcDbSymbolTableRecord
100
AcDbBlockTableRecord
  2
block 25
340
0
102
{BLKREFS
331
EF
102
}
  0
BLOCK_RECORD
  5
F6
330
1
100
AcDbSymbolTableRecord
100
AcDbBlockTableRecord
  2
block 26
340
0
102
{BLKREFS
331
F7
102
}
  0
BLOCK_RECORD
  5
FE
330
1
100
AcDbSymbolTableRecord
100
AcDbBlockTableRecord
  2
block 27
340
0
102
{BLKREFS
331
FF
102
}
  0
BLOCK_RECORD
  5
106
330
1
100
AcDbSymbolTableRecord
100
AcDbBlockTableRecord
  2
block 28
340
0
102
{BLKREFS
331
107
102
}
  0
BLOCK_RECORD
  5
10E
330
1
100
AcDbSymbolTableRecord
100
AcDbBlockTableRecord
  2
block 29
340
0
102
{BLKREFS
331
10F
102
}
  0
BLOCK_RECORD
  5
116
330
1
100
AcDbSymbolTableRecord
100
AcDbBlockTableRecord
  2
block 30
340
0
102
{BLKREFS
331
117
102
}
  0
BLOCK_RECORD
  5
11E
330
1
100
AcDbSymbolTableRecord
100
AcDbBlockTableRecord
  2
block 31
340
0
102
{BLKREFS
331
11F
102
}
  0
BLOCK_RECORD
  5
126
330
1
100
AcDbSymbolTableRecord
100
AcDbBlockTableRecord
  2
block 32
340
0
102
{BLKREFS
331
127
102
}
  0
BLOCK_RECORD
  5
12E
330
1
100
AcDbSymbolTableRecord
100
AcDbBlockTableRecord
  2
block 33
340
0
102
{BLKREFS
331
12F
102
}
  0
BLOCK_RECORD
  5
136
330
1
100
AcDbSymbolTableRecord
100
AcDbBlockTableRecord
  2
block 34
340
0
102
{BLKREFS
331
137
102
}
  0
BLOCK_RECORD
  5
13E
330
1
100
AcDbSymbolTableRecord
100
AcDbBlockTableRecord
  2
block 35
340
0
102
{BLKREFS
331
13F
102
}
  0
BLOCK_RECORD
  5
146
330
1
100
AcDbSymbolTableRecord
100
AcDbBlockTableRecord
  2
block 36
340
0
102
{BLKREFS
331
147
102
}
  0
BLOCK_RECORD
  5
14E
330
1
100
AcDbSymbolTableRecord
100
AcDbBlockTableRecord
  2
block 37
340
0
102
{BLKREFS
331
14F
102
}
  0
BLOCK_RECORD
  5
156
330
1
100
AcDbSymbolTableRecord
100
AcDbBlockTableRecord
  2
block 38
340
0
102
{BLKREFS
331
157
102
}
  0
BLOCK_RECORD
  5
15E
330
1
100
AcDbSymbolTableRecord
100
AcDbBlockTableRecord
  2
block 39
340
0
102
{BLKREFS
331
15F
102
}
  0
BLOCK_RECORD
  5
166
330
1
100
AcDbSymbolTableRecord
100
AcDbBlockTableRecord
  2
block 40
340
0
102
{BLKREFS
331
167
102
}
  0
BLOCK_RECORD
  5
16E
330
1
100
AcDbSymbolTableRecord
100
AcDbBlockTableRecord
  2
block 41
340
0
102
{BLKREFS
331
16F
102
}
  0
BLOCK_RECORD
  5
176
330
1
100
AcDbSymbolTableRecord
100
AcDbBlockTableRecord
  2
block 42
340
0
102
{BLKREFS
331
177
102
}
  0
BLOCK_RECORD
  5
17E
330
1
100
AcDbSymbolTableRecord
100
AcDbBlockTableRecord
  2
block 43
340
0
102
{BLKREFS
331
17F
102
}
  0
BLOCK_RECORD
  5
183
330
1
100
AcDbSymbolTableRecord
100
AcDbBlockTableRecord
  2
block 44
340
0
102
{BLKREFS
331
184
102
}
  0
BLOCK_RECORD
  5
18B
330
1
100
AcDbSymbolTableRecord
100
AcDbBlockTableRecord
  2
block 45
340
0
102
{BLKREFS
331
18C
102
}
  0
BLOCK_RECORD
  5
193
330
1
100
AcDbSymbolTableRecord
100
AcDbBlockTableRecord
  2
block 46
340
0
102
{BLKREFS
331
194
102
}
  0
BLOCK_RECORD
  5
198
330
1
100
AcDbSymbolTableRecord
100
AcDbBlockTableRecord
  2
block 47
340
0
102
{BLKREFS
331
199
102
}
  0
BLOCK_RECORD
  5
1A0
330
1
100
AcDbSymbolTableRecord
100
AcDbBlockTableRecord
  2
block 48
340
0
102
{BLKREFS
331
1A1
102
}
  0
BLOCK_RECORD
  5
1A5
330
1
100
AcDbSymbolTableRecord
100
AcDbBlockTableRecord
  2
block 49
340
0
102
{BLKREFS
331
1A6
102
}
  0
BLOCK_RECORD
  5
1AA
330
1
100
AcDbSymbolTableRecord
100
AcDbBlockTableRecord
  2
block 50
340
0
102
{BLKREFS
331
1AB
102
}
  0
BLOCK_RECORD
  5
1B2
330
1
100
AcDbSymbolTableRecord
100
AcDbBlockTableRecord
  2
block 51
340
0
102
{BLKREFS
331
1B3
102
}
  0
BLOCK_RECORD
  5
1BA
330
1
100
AcDbSymbolTableRecord
100
AcDbBlockTableRecord
  2
block 52
340
0
102
{BLKREFS
331
1BB
102
}
  0
BLOCK_RECORD
  5
1BF
330
1
100
AcDbSymbolTableRecord
100
AcDbBlockTableRecord
  2
block 53
340
0
102
{BLKREFS
331
1C0
102
}
  0
BLOCK_RECORD
  5
1C7
330
1
100
AcDbSymbolTableRecord
100
AcDbBlockTableRecord
  2
block 54
340
0
102
{BLKREFS
331
1C8
102
}
  0
BLOCK_RECORD
  5
1CF
330
1
100
AcDbSymbolTableRecord
100
AcDbBlockTableRecord
  2
block 55
340
0
102
{BLKREFS
331
1D0
102
}
  0
BLOCK_RECORD
  5
1D4
330
1
100
AcDbSymbolTableRecord
100
AcDbBlockTableRecord
  2
block 56
340
0
102
{BLKREFS
331
1D5
102
}
  0
BLOCK_RECORD
  5
1DC
330
1
100
AcDbSymbolTableRecord
100
AcDbBlockTableRecord
  2
block 57
340
0
102
{BLKREFS
331
1DD
102
}
  0
BLOCK_RECORD
  5
1E1
330
1
100
AcDbSymbolTableRecord
100
AcDbBlockTableRecord
  2
block 58
340
0
102
{BLKREFS
331
1E2
102
}
  0
BLOCK_RECORD
  5
1E6
330
1
100
AcDbSymbolTableRecord
100
AcDbBlockTableRecord
  2
block 59
340
0
102
{BLKREFS
331
1E7
102
}
  0
BLOCK_RECORD
  5
1EE
330
1
100
AcDbSymbolTableRecord
100
AcDbBlockTableRecord
  2
block 60
340
0
102
{BLKREFS
331
1EF
102
}
  0
BLOCK_RECORD
  5
1F6
330
1
100
AcDbSymbolTableRecord
100
AcDbBlockTableRecord
  2
block 61
340
0
102
{BLKREFS
331
1F7
102
}
  0
BLOCK_RECORD
  5
1FB
330
1
100
AcDbSymbolTableRecord
100
AcDbBlockTableRecord
  2
block 62
340
0
102
{BLKREFS
331
1FC
102
}
  0
BLOCK_RECORD
  5
203
330
1
100
AcDbSymbolTableRecord
100
AcDbBlockTableRecord
  2
block 63
340
0
102
{BLKREFS
331
204
102
}
  0
BLOCK_RECORD
  5
20B
330
1
100
AcDbSymbolTableRecord
100
AcDbBlockTableRecord
  2
block 64
340
0
102
{BLKREFS
331
20C
102
}
  0
BLOCK_RECORD
  5
210
330
1
100
AcDbSymbolTableRecord
100
AcDbBlockTableRecord
  2
block 65
340
0
102
{BLKREFS
331
211
102
}
  0
BLOCK_RECORD
  5
218
330
1
100
AcDbSymbolTableRecord
100
AcDbBlockTableRecord
  2
block 66
340
0
102
{BLKREFS
331
219
102
}
  0
BLOCK_RECORD
  5
21D
330
1
100
AcDbSymbolTableRecord
100
AcDbBlockTableRecord
  2
block 67
340
0
102
{BLKREFS
331
21E
102
}
  0
BLOCK_RECORD
  5
222
330
1
100
AcDbSymbolTableRecord
100
AcDbBlockTableRecord
  2
block 68
340
0
102
{BLKREFS
331
223
102
}
  0
BLOCK_RECORD
  5
227
330
1
100
AcDbSymbolTableRecord
100
AcDbBlockTableRecord
  2
block 69
340
0
102
{BLKREFS
331
228
102
}
  0
BLOCK_RECORD
  5
22C
330
1
100
AcDbSymbolTableRecord
100
AcDbBlockTableRecord
  2
block 70
340
0
102
{BLKREFS
331
22D
102
}
  0
BLOCK_RECORD
  5
234
330
1
100
AcDbSymbolTableRecord
100
AcDbBlockTableRecord
  2
block 71
340
0
102
{BLKREFS
331
235
102
}
  0
BLOCK_RECORD
  5
23C
330
1
100
AcDbSymbolTableRecord
100
AcDbBlockTableRecord
  2
block 72
340
0
102
{BLKREFS
331
23D
102
}
  0
BLOCK_RECORD
  5
244
330
1
100
AcDbSymbolTableRecord
100
AcDbBlockTableRecord
  2
block 73
340
0
102
{BLKREFS
331
245
102
}
  0
BLOCK_RECORD
  5
249
330
1
100
AcDbSymbolTableRecord
100
AcDbBlockTableRecord
  2
block 74
340
0
102
{BLKREFS
331
24A
102
}
  0
BLOCK_RECORD
  5
251
330
1
100
AcDbSymbolTableRecord
100
AcDbBlockTableRecord
  2
block 75
340
0
102
{BLKREFS
331
252
102
}
  0
BLOCK_RECORD
  5
256
330
1
100
AcDbSymbolTableRecord
100
AcDbBlockTableRecord
  2
block 76
340
0
102
{BLKREFS
331
257
102
}
  0
BLOCK_RECORD
  5
25E
330
1
100
AcDbSymbolTableRecord
100
AcDbBlockTableRecord
  2
block 77
340
0
102
{BLKREFS
331
25F
102
}
  0
BLOCK_RECORD
  5
263
330
1
100
AcDbSymbolTableRecord
100
AcDbBlockTableRecord
  2
block 78
340
0
102
{BLKREFS
331
264
102
}
  0
BLOCK_RECORD
  5
26B
330
1
100
AcDbSymbolTableRecord
100
AcDbBlockTableRecord
  2
block 79
340
0
102
{BLKREFS
331
26C
102
}
  0
BLOCK_RECORD
  5
273
330
1
100
AcDbSymbolTableRecord
100
AcDbBlockTableRecord
  2
block 80
340
0
102
{BLKREFS
331
274
102
}
  0
BLOCK_RECORD
  5
27B
330
1
100
AcDbSymbolTableRecord
100
AcDbBlockTableRecord
  2
block 81
340
0
102
{BLKREFS
331
27C
102
}
  0
BLOCK_RECORD
  5
283
330
1
100
AcDbSymbolTableRecord
100
AcDbBlockTableRecord
  2
block 82
340
0
102
{BLKREFS
331
284
102
}
  0
BLOCK_RECORD
  5
288
330
1
100
AcDbSymbolTableRecord
100
AcDbBlockTableRecord
  2
block 83
340
0
102
{BLKREFS
331
289
102
}
  0
BLOCK_RECORD
  5
290
330
1
100
AcDbSymbolTableRecord
100
AcDbBlockTableRecord
  2
block 84
340
0
102
{BLKREFS
331
291
102
}
  0
BLOCK_RECORD
  5
298
330
1
100
AcDbSymbolTableRecord
100
AcDbBlockTableRecord
  2
block 85
340
0
102
{BLKREFS
331
299
102
}
  0
BLOCK_RECORD
  5
2A0
330
1
100
AcDbSymbolTableRecord
100
AcDbBlockTableRecord
  2
block 86
340
0
102
{BLKREFS
331
2A1
102
}
  0
BLOCK_RECORD
  5
2A8
330
1
100
AcDbSymbolTableRecord
100
AcDbBlockTableRecord
  2
block 87
340
0
102
{BLKREFS
331
2A9
102
}
  0
BLOCK_RECORD
  5
2AD
330
1
100
AcDbSymbolTableRecord
100
AcDbBlockTableRecord
  2
block 88
340
0
102
{BLKREFS
331
2AE
102
}
  0
BLOCK_RECORD
  5
2B2
330
1
100
AcDbSymbolTableRecord
100
AcDbBlockTableRecord
  2
block 89
340
0
102
{BLKREFS
331
2B3
102
}
  0
BLOCK_RECORD
  5
2BA
330
1
100
AcDbSymbolTableRecord
100
AcDbBlockTableRecord
  2
block 90
340
0
102
{BLKREFS
331
2BB
102
}
  0
BLOCK_RECORD
  5
2C2
330
1
100
AcDbSymbolTableRecord
100
AcDbBlockTableRecord
  2
block 91
340
0
102
{BLKREFS
331
2C3
102
}
  0
BLOCK_RECORD
  5
2CA
330
1
100
AcDbSymbolTableRecord
100
AcDbBlockTableRecord
  2
block 92
340
0
102
{BLKREFS
331
2CB
102
}
  0
BLOCK_RECORD
  5
2D2
330
1
100
AcDbSymbolTableRecord
100
AcDbBlockTableRecord
  2
block 93
340
0
102
{BLKREFS
331
2D3
102
}
  0
BLOCK_RECORD
  5
2D7
330
1
100
AcDbSymbolTableRecord
100
AcDbBlockTableRecord
  2
block 94
340
0
102
{BLKREFS
331
2D8
102
}
  0
BLOCK_RECORD
  5
2DC
330
1
100
AcDbSymbolTableRecord
100
AcDbBlockTableRecord
  2
block 95
340
0
102
{BLKREFS
331
2DD
102
}
  0
BLOCK_RECORD
  5
2E4
330
1
100
AcDbSymbolTableRecord
100
AcDbBlockTableRecord
  2
block 96
340
0
102
{BLKREFS
331
2E5
102
}
  0
BLOCK_RECORD
  5
2EC
330
1
100
AcDbSymbolTableRecord
100
AcDbBlockTableRecord
  2
block 97
340
0
102
{BLKREFS
331
2ED
102
}
  0
BLOCK_RECORD
  5
2F4
330
1
100
AcDbSymbolTableRecord
100
AcDbBlockTableRecord
  2
block 98
340
0
102
{BLKREFS
331
2F5
102
}
  0
BLOCK_RECORD
  5
2FC
330
1
100
AcDbSymbolTableRecord
100
AcDbBlockTableRecord
  2
block 99
340
0
102
{BLKREFS
331
2FD
102
}
  0
BLOCK_RECORD
  5
304
330
1
100
AcDbSymbolTableRecord
100
AcDbBlockTableRecord
  2
block 100
340
0
102
{BLKREFS
331
305
102
}
  0
BLOCK_RECORD
  5
30C
330
1
100
AcDbSymbolTableRecord
100
AcDbBlockTableRecord
  2
block 101
340
0
102
{BLKREFS
331
30D
102
}
  0
BLOCK_RECORD
  5
311
330
1
100
AcDbSymbolTableRecord
100
AcDbBlockTableRecord
  2
block 102
340
0
102
{BLKREFS
331
312
102
}
  0
BLOCK_RECORD
  5
319
330
1
100
AcDbSymbolTableRecord
100
AcDbBlockTableRecord
  2
block 103
340
0
102
{BLKREFS
331
31A
102
}
  0
BLOCK_RECORD
  5
31E
330
1
100
AcDbSymbolTableRecord
100
AcDbBlockTableRecord
  2
block 104
340
0
102
{BLKREFS
331
31F
102
}
  0
BLOCK_RECORD
  5
326
330
1
100
AcDbSymbolTableRecord
100
AcDbBlockTableRecord
  2
block 105
340
0
102
{BLKREFS
331
327
102
}
  0
BLOCK_RECORD
  5
32B
330
1
100
AcDbSymbolTableRecord
100
AcDbBlockTableRecord
  2
block 106
340
0
102
{BLKREFS
331
32C
102
}
  0
BLOCK_RECORD
  5
333
330
1
100
AcDbSymbolTableRecord
100
AcDbBlockTableRecord
  2
block 107
340
0
102
{BLKREFS
331
334
102
}
  0
BLOCK_RECORD
  5
33B
330
1
100
AcDbSymbolTableRecord
100
AcDbBlockTableRecord
  2
block 108
340
0
102
{BLKREFS
331
33C
102
}
  0
BLOCK_RECORD
  5
343
330
1
100
AcDbSymbolTableRecord
100
AcDbBlockTableRecord
  2
block 109
340
0
102
{BLKREFS
331
344
102
}
  0
BLOCK_RECORD
  5
34B
330
1
100
AcDbSymbolTableRecord
100
AcDbBlockTableRecord
  2
block 110
340
0
102
{BLKREFS
331
34C
102
}
  0
BLOCK_RECORD
  5
350
330
1
100
AcDbSymbolTableRecord
100
AcDbBlockTableRecord
  2
block 111
340
0
102
{BLKREFS
331
351
102
}
  0
BLOCK_RECORD
  5
358
330
1
100
AcDbSymbolTableRecord
100
AcDbBlockTableRecord
  2
block 112
340
0
102
{BLKREFS
331
359
102
}
  0
BLOCK_RECORD
  5
360
330
1
100
AcDbSymbolTableRecord
100
AcDbBlockTableRecord
  2
block 113
340
0
102
{BLKREFS
331
361
102
}
  0
BLOCK_RECORD
  5
368
330
1
100
AcDbSymbolTableRecord
100
AcDbBlockTableRecord
  2
block 114
340
0
102
{BLKREFS
331
369
102
}
  0
BLOCK_RECORD
  5
370
330
1
100
AcDbSymbolTableRecord
100
AcDbBlockTableRecord
  2
block 115
340
0
102
{BLKREFS
331
371
102
}
  0
BLOCK_RECORD
  5
375
330
1
100
AcDbSymbolTableRecord
100
AcDbBlockTableRecord
  2
block 116
340
0
102
{BLKREFS
331
376
102
}
  0
BLOCK_RECORD
  5
37A
330
1
100
AcDbSymbolTableRecord
100
AcDbBlockTableRecord
  2
block 117
340
0
102
{BLKREFS
331
37B
102
}
  0
BLOCK_RECORD
  5
382
330
1
100
AcDbSymbolTableRecord
100
AcDbBlockTableRecord
  2
block 118
340
0
102
{BLKREFS
331
383
102
}
  0
BLOCK_RECORD
  5
38A
330
1
100
AcDbSymbolTableRecord
100
AcDbBlockTableRecord
  2
block 119
340
0
102
{BLKREFS
331
38B
102
}
  0
BLOCK_RECORD
  5
392
330
1
100
AcDbSymbolTableRecord
100
AcDbBlockTableRecord
  2
block 120
340
0
102
{BLKREFS
331
393
102
}
  0
BLOCK_RECORD
  5
39A
330
1
100
AcDbSymbolTableRecord
100
AcDbBlockTableRecord
  2
block 121
340
0
102
{BLKREFS
331
39B
102
}
  0
BLOCK_RECORD
  5
39F
330
1
100
AcDbSymbolTableRecord
100
AcDbBlockTableRecord
  2
block 122
340
0
102
{BLKREFS
331
3A0
102
}
  0
BLOCK_RECORD
  5
3A4
330
1
100
AcDbSymbolTableRecord
100
AcDbBlockTableRecord
  2
block 123
340
0
102
{BLKREFS
331
3A5
102
}
  0
BLOCK_RECORD
  5
3AC
330
1
100
AcDbSymbolTableRecord
100
AcDbBlockTableRecord
  2
block 124
340
0
102
{BLKREFS
331
3AD
102
}
  0
BLOCK_RECORD
  5
3B4
330
1
100
AcDbSymbolTableRecord
100
AcDbBlockTableRecord
  2
block 125
340
0
102
{BLKREFS
331
3B5
102
}
  0
BLOCK_RECORD
  5
3BC
330
1
100
AcDbSymbolTableRecord
100
AcDbBlockTableRecord
  2
block 126
340
0
102
{BLKREFS
331
3BD
102
}
  0
BLOCK_RECORD
  5
3C4
330
1
100
AcDbSymbolTableRecord
100
AcDbBlockTableRecord
  2
block 127
340
0
102
{BLKREFS
331
3C5
102
}
  0
BLOCK_RECORD
  5
3CC
330
1
100
AcDbSymbolTableRecord
100
AcDbBlockTableRecord
  2
block 128
340
0
102
{BLKREFS
331
3CD
102
}
  0
BLOCK_RECORD
  5
3D4
330
1
100
AcDbSymbolTableRecord
100
AcDbBlockTableRecord
  2
block 129
340
0
102
{BLKREFS
331
3D5
102
}
  0
BLOCK_RECORD
  5
3DC
330
1
100
AcDbSymbolTableRecord
100
AcDbBlockTableRecord
  2
block 130
340
0
102
{BLKREFS
331
3DD
102
}
  0
BLOCK_RECORD
  5
3E4
330
1
100
AcDbSymbolTableRecord
100
AcDbBlockTableRecord
  2
block 131
340
0
102
{BLKREFS
331
3E5
102
}
  0
BLOCK_RECORD
  5
3EC
330
1
100
AcDbSymbolTableRecord
100
AcDbBlockTableRecord
  2
block 132
340
0
102
{BLKREFS
331
3ED
102
}
  0
BLOCK_RECORD
  5
3F4
330
1
100
AcDbSymbolTableRecord
100
AcDbBlockTableRecord
  2
block 133
340
0
102
{BLKREFS
331
3F5
102
}
  0
BLOCK_RECORD
  5
3F9
330
1
100
AcDbSymbolTableRecord
100
AcDbBlockTableRecord
  2
block 134
340
0
102
{BLKREFS
331
3FA
102
}
  0
BLOCK_RECORD
  5
401
330
1
100
AcDbSymbolTableRecord
100
AcDbBlockTableRecord
  2
block 135
340
0
102
{BLKREFS
331
402
102
}
  0
BLOCK_RECORD
  5
409
330
1
100
AcDbSymbolTableRecord
100
AcDbBlockTableRecord
  2
block 136
340
0
102
{BLKREFS
331
40A
102
}
  0
BLOCK_RECORD
  5
411
330
1
100
AcDbSymbolTableRecord
100
AcDbBlockTableRecord
  2
block 137
340
0
102
{BLKREFS
331
412
102
}
  0
BLOCK_RECORD
  5
419
330
1
100
AcDbSymbolTableRecord
100
AcDbBlockTableRecord
  2
block 138
340
0
102
{BLKREFS
331
41A
102
}
  0
BLOCK_RECORD
  5
421
330
1
100
AcDbSymbolTableRecord
100
AcDbBlockTableRecord
  2
block 139
340
0
102
{BLKREFS
331
422
102
}
  0
BLOCK_RECORD
  5
429
330
1
100
AcDbSymbolTableRecord
100
AcDbBlockTableRecord
  2
block 140
340
0
102
{BLKREFS
331
42A
102
}
  0
BLOCK_RECORD
  5
431
330
1
100
AcDbSymbolTableRecord
100
AcDbBlockTableRecord
  2
block 141
340
0
102
{BLKREFS
331
432
102
}
  0
BLOCK_RECORD
  5
439
330
1
100
AcDbSymbolTableRecord
100
AcDbBlockTableRecord
  2
block 142
340
0
102
{BLKREFS
331
43A
102
}
  0
BLOCK_RECORD
  5
441
330
1
100
AcDbSymbolTableRecord
100
AcDbBlockTableRecord
  2
block 143
340
0
102
{BLKREFS
331
442
102
}
  0
BLOCK_RECORD
  5
449
330
1
100
AcDbSymbolTableRecord
100
AcDbBlockTableRecord
  2
block 144
340
0
102
{BLKREFS
331
44A
102
}
  0
BLOCK_RECORD
  5
451
330
1
100
AcDbSymbolTableRecord
100
AcDbBlockTableRecord
  2
block 145
340
0
102
{BLKREFS
331
452
102
}
  0
BLOCK_RECORD
  5
456
330
1
100
AcDbSymbolTableRecord
100
AcDbBlockTableRecord
  2
block 146
340
0
102
{BLKREFS
331
457
102
}
  0
BLOCK_RECORD
  5
45C
330
1
100
AcDbSymbolTableRecord
100
AcDbBlockTableRecord
  2
block 147
340
0
102
{BLKREFS
331
45D
102
}
  0
BLOCK_RECORD
  5
460
330
1
100
AcDbSymbolTableRecord
100
AcDbBlockTableRecord
  2
block 148
340
0
102
{BLKREFS
331
461
102
}
  0
BLOCK_RECORD
  5
468
330
1
100
AcDbSymbolTableRecord
100
AcDbBlockTableRecord
  2
block 149
340
0
102
{BLKREFS
331
469
102
}
  0
BLOCK_RECORD
  5
470
330
1
100
AcDbSymbolTableRecord
100
AcDbBlockTableRecord
  2
block 150
340
0
102
{BLKREFS
331
471
102
}
  0
BLOCK_RECORD
  5
478
330
1
100
AcDbSymbolTableRecord
100
AcDbBlockTableRecord
  2
block 151
340
0
102
{BLKREFS
331
479
102
}
  0
BLOCK_RECORD
  5
480
330
1
100
AcDbSymbolTableRecord
100
AcDbBlockTableRecord
  2
block 152
340
0
102
{BLKREFS
331
481
102
}
  0
BLOCK_RECORD
  5
48B
330
1
100
AcDbSymbolTableRecord
100
AcDbBlockTableRecord
  2
block 153
340
0
102
{BLKREFS
331
48C
102
}
  0
BLOCK_RECORD
  5
496
330
1
100
AcDbSymbolTableRecord
100
AcDbBlockTableRecord
  2
block 154
340
0
102
{BLKREFS
331
497
102
}
  0
BLOCK_RECORD
  5
49B
330
1
100
AcDbSymbolTableRecord
100
AcDbBlockTableRecord
  2
block 155
340
0
102
{BLKREFS
331
49C
102
}
  0
BLOCK_RECORD
  5
4A3
330
1
100
AcDbSymbolTableRecord
100
AcDbBlockTableRecord
  2
block 156
340
0
102
{BLKREFS
331
4A4
102
}
  0
BLOCK_RECORD
  5
4AB
330
1
100
AcDbSymbolTableRecord
100
AcDbBlockTableRecord
  2
block 157
340
0
102
{BLKREFS
331
4AC
102
}
  0
BLOCK_RECORD
  5
4B3
330
1
100
AcDbSymbolTableRecord
100
AcDbBlockTableRecord
  2
block 158
340
0
102
{BLKREFS
331
4B4
102
}
  0
BLOCK_RECORD
  5
4B7
330
1
100
AcDbSymbolTableRecord
100
AcDbBlockTableRecord
  2
block 159
340
0
102
{BLKREFS
331
4B8
102
}
  0
BLOCK_RECORD
  5
4BF
330
1
100
AcDbSymbolTableRecord
100
AcDbBlockTableRecord
  2
block 160
340
0
102
{BLKREFS
331
4C0
102
}
  0
BLOCK_RECORD
  5
4C7
330
1
100
AcDbSymbolTableRecord
100
AcDbBlockTableRecord
  2
block 161
340
0
102
{BLKREFS
331
4C8
102
}
  0
BLOCK_RECORD
  5
4CF
330
1
100
AcDbSymbolTableRecord
100
AcDbBlockTableRecord
  2
block 162
340
0
102
{BLKREFS
331
4D0
102
}
  0
BLOCK_RECORD
  5
4D7
330
1
100
AcDbSymbolTableRecord
100
AcDbBlockTableRecord
  2
block 163
340
0
102
{BLKREFS
331
4D8
102
}
  0
BLOCK_RECORD
  5
4E2
330
1
100
AcDbSymbolTableRecord
100
AcDbBlockTableRecord
  2
block 164
340
0
102
{BLKREFS
331
4E3
102
}
  0
BLOCK_RECORD
  5
4ED
330
1
100
AcDbSymbolTableRecord
100
AcDbBlockTableRecord
  2
block 165
340
0
102
{BLKREFS
331
4EE
102
}
  0
BLOCK_RECORD
  5
4F2
330
1
100
AcDbSymbolTableRecord
100
AcDbBlockTableRecord
  2
block 166
340
0
102
{BLKREFS
331
4F3
102
}
  0
BLOCK_RECORD
  5
4FA
330
1
100
AcDbSymbolTableRecord
100
AcDbBlockTableRecord
  2
block 167
340
0
102
{BLKREFS
331
4FB
102
}
  0
BLOCK_RECORD
  5
502
330
1
100
AcDbSymbolTableRecord
100
AcDbBlockTableRecord
  2
block 168
340
0
102
{BLKREFS
331
503
102
}
  0
BLOCK_RECORD
  5
50A
330
1
100
AcDbSymbolTableRecord
100
AcDbBlockTableRecord
  2
block 169
340
0
102
{BLKREFS
331
50B
102
}
  0
BLOCK_RECORD
  5
50E
330
1
100
AcDbSymbolTableRecord
100
AcDbBlockTableRecord
  2
block 170
340
0
102
{BLKREFS
331
50F
102
}
  0
BLOCK_RECORD
  5
516
330
1
100
AcDbSymbolTableRecord
100
AcDbBlockTableRecord
  2
block 171
340
0
102
{BLKREFS
331
517
102
}
  0
BLOCK_RECORD
  5
51E
330
1
100
AcDbSymbolTableRecord
100
AcDbBlockTableRecord
  2
block 172
340
0
102
{BLKREFS
331
51F
102
}
  0
BLOCK_RECORD
  5
526
330
1
100
AcDbSymbolTableRecord
100
AcDbBlockTableRecord
  2
block 173
340
0
102
{BLKREFS
331
527
102
}
  0
BLOCK_RECORD
  5
52E
330
1
100
AcDbSymbolTableRecord
100
AcDbBlockTableRecord
  2
block 174
340
0
102
{BLKREFS
331
52F
102
}
  0
BLOCK_RECORD
  5
539
330
1
100
AcDbSymbolTableRecord
100
AcDbBlockTableRecord
  2
block 175
340
0
102
{BLKREFS
331
53A
102
}
  0
BLOCK_RECORD
  5
544
330
1
100
AcDbSymbolTableRecord
100
AcDbBlockTableRecord
  2
block 176
340
0
102
{BLKREFS
331
545
102
}
  0
BLOCK_RECORD
  5
549
330
1
100
AcDbSymbolTableRecord
100
AcDbBlockTableRecord
  2
block 177
340
0
102
{BLKREFS
331
54A
102
}
  0
BLOCK_RECORD
  5
551
330
1
100
AcDbSymbolTableRecord
100
AcDbBlockTableRecord
  2
block 178
340
0
102
{BLKREFS
331
552
102
}
  0
BLOCK_RECORD
  5
559
330
1
100
AcDbSymbolTableRecord
100
AcDbBlockTableRecord
  2
block 179
340
0
102
{BLKREFS
331
55A
102
}
  0
BLOCK_RECORD
  5
561
330
1
100
AcDbSymbolTableRecord
100
AcDbBlockTableRecord
  2
block 180
340
0
102
{BLKREFS
331
562
102
}
  0
BLOCK_RECORD
  5
565
330
1
100
AcDbSymbolTableRecord
100
AcDbBlockTableRecord
  2
block 181
340
0
102
{BLKREFS
331
566
102
}
  0
BLOCK_RECORD
  5
56D
330
1
100
AcDbSymbolTableRecord
100
AcDbBlockTableRecord
  2
block 182
340
0
102
{BLKREFS
331
56E
102
}
  0
BLOCK_RECORD
  5
575
330
1
100
AcDbSymbolTableRecord
100
AcDbBlockTableRecord
  2
block 183
340
0
102
{BLKREFS
331
576
102
}
  0
BLOCK_RECORD
  5
57D
330
1
100
AcDbSymbolTableRecord
100
AcDbBlockTableRecord
  2
block 184
340
0
102
{BLKREFS
331
57E
102
}
  0
BLOCK_RECORD
  5
585
330
1
100
AcDbSymbolTableRecord
100
AcDbBlockTableRecord
  2
block 185
340
0
102
{BLKREFS
331
586
102
}
  0
BLOCK_RECORD
  5
590
330
1
100
AcDbSymbolTableRecord
100
AcDbBlockTableRecord
  2
block 186
340
0
102
{BLKREFS
331
591
102
}
  0
BLOCK_RECORD
  5
59B
330
1
100
AcDbSymbolTableRecord
100
AcDbBlockTableRecord
  2
block 187
340
0
102
{BLKREFS
331
59C
102
}
  0
BLOCK_RECORD
  5
5A0
330
1
100
AcDbSymbolTableRecord
100
AcDbBlockTableRecord
  2
block 188
340
0
102
{BLKREFS
331
5A1
102
}
  0
BLOCK_RECORD
  5
5A8
330
1
100
AcDbSymbolTableRecord
100
AcDbBlockTableRecord
  2
block 189
340
0
102
{BLKREFS
331
5A9
102
}
  0
BLOCK_RECORD
  5
5B0
330
1
100
AcDbSymbolTableRecord
100
AcDbBlockTableRecord
  2
block 190
340
0
102
{BLKREFS
331
5B1
102
}
  0
BLOCK_RECORD
  5
5B8
330
1
100
AcDbSymbolTableRecord
100
AcDbBlockTableRecord
  2
block 191
340
0
102
{BLKREFS
331
5B9
102
}
  0
BLOCK_RECORD
  5
5BC
330
1
100
AcDbSymbolTableRecord
100
AcDbBlockTableRecord
  2
block 192
340
0
102
{BLKREFS
331
5BD
102
}
  0
BLOCK_RECORD
  5
5C4
330
1
100
AcDbSymbolTableRecord
100
AcDbBlockTableRecord
  2
block 193
340
0
102
{BLKREFS
331
5C5
102
}
  0
BLOCK_RECORD
  5
5CC
330
1
100
AcDbSymbolTableRecord
100
AcDbBlockTableRecord
  2
block 194
340
0
102
{BLKREFS
331
5CD
102
}
  0
BLOCK_RECORD
  5
5D4
330
1
100
AcDbSymbolTableRecord
100
AcDbBlockTableRecord
  2
block 195
340
0
102
{BLKREFS
331
5D5
102
}
  0
BLOCK_RECORD
  5
5DC
330
1
100
AcDbSymbolTableRecord
100
AcDbBlockTableRecord
  2
block 196
340
0
102
{BLKREFS
331
5DD
102
}
  0
BLOCK_RECORD
  5
5E4
330
1
100
AcDbSymbolTableRecord
100
AcDbBlockTableRecord
  2
block 197
340
0
102
{BLKREFS
331
5E5
102
}
  0
BLOCK_RECORD
  5
5EC
330
1
100
AcDbSymbolTableRecord
100
AcDbBlockTableRecord
  2
block 198
340
0
102
{BLKREFS
331
5ED
102
}
  0
BLOCK_RECORD
  5
5F7
330
1
100
AcDbSymbolTableRecord
100
AcDbBlockTableRecord
  2
block 199
340
0
102
{BLKREFS
331
5F8
102
}
  0
BLOCK_RECORD
  5
602
330
1
100
AcDbSymbolTableRecord
100
AcDbBlockTableRecord
  2
block 200
340
0
102
{BLKREFS
331
603
102
}
  0
BLOCK_RECORD
  5
607
330
1
100
AcDbSymbolTableRecord
100
AcDbBlockTableRecord
  2
block 201
340
0
102
{BLKREFS
331
608
102
}
  0
BLOCK_RECORD
  5
60F
330
1
100
AcDbSymbolTableRecord
100
AcDbBlockTableRecord
  2
block 202
340
0
102
{BLKREFS
331
610
102
}
  0
BLOCK_RECORD
  5
617
330
1
100
AcDbSymbolTableRecord
100
AcDbBlockTableRecord
  2
block 203
340
0
102
{BLKREFS
331
618
102
}
  0
BLOCK_RECORD
  5
61F
330
1
100
AcDbSymbolTableRecord
100
AcDbBlockTableRecord
  2
block 204
340
0
102
{BLKREFS
331
620
102
}
  0
BLOCK_RECORD
  5
623
330
1
100
AcDbSymbolTableRecord
100
AcDbBlockTableRecord
  2
block 205
340
0
102
{BLKREFS
331
624
102
}
  0
BLOCK_RECORD
  5
62B
330
1
100
AcDbSymbolTableRecord
100
AcDbBlockTableRecord
  2
block 206
340
0
102
{BLKREFS
331
62C
102
}
  0
BLOCK_RECORD
  5
633
330
1
100
AcDbSymbolTableRecord
100
AcDbBlockTableRecord
  2
block 207
340
0
102
{BLKREFS
331
634
102
}
  0
BLOCK_RECORD
  5
63B
330
1
100
AcDbSymbolTableRecord
100
AcDbBlockTableRecord
  2
block 208
340
0
102
{BLKREFS
331
63C
102
}
  0
BLOCK_RECORD
  5
643
330
1
100
AcDbSymbolTableRecord
100
AcDbBlockTableRecord
  2
block 209
340
0
102
{BLKREFS
331
644
102
}
  0
BLOCK_RECORD
  5
64E
330
1
100
AcDbSymbolTableRecord
100
AcDbBlockTableRecord
  2
block 210
340
0
102
{BLKREFS
331
64F
102
}
  0
BLOCK_RECORD
  5
659
330
1
100
AcDbSymbolTableRecord
100
AcDbBlockTableRecord
  2
block 211
340
0
102
{BLKREFS
331
65A
102
}
  0
BLOCK_RECORD
  5
65E
330
1
100
AcDbSymbolTableRecord
100
AcDbBlockTableRecord
  2
block 212
340
0
102
{BLKREFS
331
65F
102
}
  0
BLOCK_RECORD
  5
666
330
1
100
AcDbSymbolTableRecord
100
AcDbBlockTableRecord
  2
block 213
340
0
102
{BLKREFS
331
667
102
}
  0
BLOCK_RECORD
  5
66E
330
1
100
AcDbSymbolTableRecord
100
AcDbBlockTableRecord
  2
block 214
340
0
102
{BLKREFS
331
66F
102
}
  0
BLOCK_RECORD
  5
676
330
1
100
AcDbSymbolTableRecord
100
AcDbBlockTableRecord
  2
block 215
340
0
102
{BLKREFS
331
677
102
}
  0
BLOCK_RECORD
  5
67A
330
1
100
AcDbSymbolTableRecord
100
AcDbBlockTableRecord
  2
block 216
340
0
102
{BLKREFS
331
67B
102
}
  0
BLOCK_RECORD
  5
682
330
1
100
AcDbSymbolTableRecord
100
AcDbBlockTableRecord
  2
block 217
340
0
102
{BLKREFS
331
683
102
}
  0
BLOCK_RECORD
  5
68A
330
1
100
AcDbSymbolTableRecord
100
AcDbBlockTableRecord
  2
block 218
340
0
102
{BLKREFS
331
68B
102
}
  0
BLOCK_RECORD
  5
692
330
1
100
AcDbSymbolTableRecord
100
AcDbBlockTableRecord
  2
block 219
340
0
102
{BLKREFS
331
693
102
}
  0
BLOCK_RECORD
  5
69A
330
1
100
AcDbSymbolTableRecord
100
AcDbBlockTableRecord
  2
block 220
340
0
102
{BLKREFS
331
69B
102
}
  0
BLOCK_RECORD
  5
6A2
330
1
100
AcDbSymbolTableRecord
100
AcDbBlockTableRecord
  2
block 221
340
0
102
{BLKREFS
331
6A3
102
}
  0
BLOCK_RECORD
  5
6AA
330
1
100
AcDbSymbolTableRecord
100
AcDbBlockTableRecord
  2
block 222
340
0
102
{BLKREFS
331
6AB
102
}
  0
BLOCK_RECORD
  5
6B5
330
1
100
AcDbSymbolTableRecord
100
AcDbBlockTableRecord
  2
block 223
340
0
102
{BLKREFS
331
6B6
102
}
  0
BLOCK_RECORD
  5
6C0
330
1
100
AcDbSymbolTableRecord
100
AcDbBlockTableRecord
  2
block 224
340
0
102
{BLKREFS
331
6C1
102
}
  0
BLOCK_RECORD
  5
6C5
330
1
100
AcDbSymbolTableRecord
100
AcDbBlockTableRecord
  2
block 225
340
0
102
{BLKREFS
331
6C6
102
}
  0
BLOCK_RECORD
  5
6CD
330
1
100
AcDbSymbolTableRecord
100
AcDbBlockTableRecord
  2
block 226
340
0
102
{BLKREFS
331
6CE
102
}
  0
BLOCK_RECORD
  5
6D5
330
1
100
AcDbSymbolTableRecord
100
AcDbBlockTableRecord
  2
block 227
340
0
102
{BLKREFS
331
6D6
102
}
  0
ENDTAB
  0
ENDSEC
  0
SECTION
  2
BLOCKS
  0
BLOCK
  5
20
330
1F
100
AcDbEntity
  8
0
100
AcDbBlockBegin
  2
*Model_Space
 70
     0
 71
     0
 10
0.0
 20
0.0
 30
0.0
  3
*Model_Space
  1

  0
ENDBLK
  5
21
330
1F
100
AcDbEntity
  8
0
100
AcDbBlockEnd
  0
BLOCK
  5
1C
330
1B
100
AcDbEntity
 67
     1
  8
0
100
AcDbBlockBegin
  2
*Paper_Space
 70
     0
 71
     0
 10
0.0
 20
0.0
 30
0.0
  3
*Paper_Space
  1

  0
ENDBLK
  5
1D
330
1B
100
AcDbEntity
 67
     1
  8
0
100
AcDbBlockEnd
  0
BLOCK
  5
24
330
23
100
AcDbEntity
  8
0
100
AcDbBlockBegin
  2
*Paper_Space0
 70
     0
 71
     0
 10
0.0
 20
0.0
 30
0.0
  3
*Paper_Space0
  1

  0
ENDBLK
  5
25
330
23
100
AcDbEntity
  8
0
100
AcDbBlockEnd
  0
BLOCK
  5
3E
330
3C
100
AcDbEntity
  8
0
100
AcDbBlockBegin
  2
block 2
 70
     0
 71
     0
 10
0.0
 20
0.0
 30
0.0
  3
block 2
  1

  0
SPLINE
  5
40
330
3C
100
AcDbEntity
  8
cuerpo
 62
     7
420
 16777215
370
    25
100
AcDbSpline
210
0.0
220
0.0
230
1.0
 70
     8
 71
     3
 72
    11
 73
     7
 74
     0
 42
0.0000000001
 43
0.0000000001
 40
0.0
 40
0.0
 40
0.0
 40
0.0
 40
1.0
 40
1.0
 40
1.0
 40
2.0
 40
2.0
 40
2.0
 40
2.0
 10
267.591796875
 20
131.578125
 30
0.0
 10
271.70703125
 20
131.578125
 30
0.0
 10
275.04296875
 20
134.9140625
 30
0.0
 10
275.04296875
 20
139.0283203125
 30
0.0
 10
275.04296875
 20
143.14453125
 30
0.0
 10
271.70703125
 20
146.48046875
 30
0.0
 10
267.591796875
 20
146.48046875
 30
0.0
  0
ENDBLK
  5
3F
330
3C
100
AcDbEntity
  8
0
100
AcDbBlockEnd
  0
BLOCK
  5
43
330
41
100
AcDbEntity
  8
0
100
AcDbBlockBegin
  2
block 3
 70
     0
 71
     0
 10
0.0
 20
0.0
 30
0.0
  3
block 3
  1

  0
POLYLINE
  5
45
330
41
100
AcDbEntity
  8
cuerpo
 62
     7
420
 16777215
370
    25
100
AcDb2dPolyline
 66
     1
 10
0.0
 20
0.0
 30
0.0
  0
VERTEX
  5
46
330
45
100
AcDbEntity
  8
cuerpo
 62
     7
420
 16777215
370
    25
100
AcDbVertex
100
AcDb2dVertex
 10
151.236328125
 20
150.224609375
 30
0.0
  0
VERTEX
  5
47
330
45
100
AcDbEntity
  8
cuerpo
 62
     7
420
 16777215
370
    25
100
AcDbVertex
100
AcDb2dVertex
 10
151.236328125
 20
127.8330078125
 30
0.0
  0
SEQEND
  5
48
330
45
100
AcDbEntity
  8
cuerpo
370
    25
  0
ENDBLK
  5
44
330
41
100
AcDbEntity
  8
0
100
AcDbBlockEnd
  0
BLOCK
  5
4B
330
49
100
AcDbEntity
  8
0
100
AcDbBlockBegin
  2
block 4
 70
     0
 71
     0
 10
0.0
 20
0.0
 30
0.0
  3
block 4
  1

  0
POLYLINE
  5
4D
330
49
100
AcDbEntity
  8
cuerpo
 62
     7
420
 16777215
370
    25
100
AcDb2dPolyline
 66
     1
 10
0.0
 20
0.0
 30
0.0
  0
VERTEX
  5
4E
330
4D
100
AcDbEntity
  8
cuerpo
 62
     7
420
 16777215
370
    25
100
AcDbVertex
100
AcDb2dVertex
 10
151.236328125
 20
127.8330078125
 30
0.0
  0
VERTEX
  5
4F
330
4D
100
AcDbEntity
  8
cuerpo
 62
     7
420
 16777215
370
    25
100
AcDbVertex
100
AcDb2dVertex
 10
124.822265625
 20
127.8330078125
 30
0.0
  0
SEQEND
  5
50
330
4D
100
AcDbEntity
  8
cuerpo
370
    25
  0
ENDBLK
  5
4C
330
49
100
AcDbEntity
  8
0
100
AcDbBlockEnd
  0
BLOCK
  5
53
330
51
100
AcDbEntity
  8
0
100
AcDbBlockBegin
  2
block 5
 70
     0
 71
     0
 10
0.0
 20
0.0
 30
0.0
  3
block 5
  1

  0
POLYLINE
  5
55
330
51
100
AcDbEntity
  8
cuerpo
 62
     7
420
 16777215
370
    25
100
AcDb2dPolyline
 66
     1
 10
0.0
 20
0.0
 30
0.0
  0
VERTEX
  5
56
330
55
100
AcDbEntity
  8
cuerpo
 62
     7
420
 16777215
370
    25
100
AcDbVertex
100
AcDb2dVertex
 10
124.822265625
 20
150.224609375
 30
0.0
  0
VERTEX
  5
57
330
55
100
AcDbEntity
  8
cuerpo
 62
     7
420
 16777215
370
    25
100
AcDbVertex
100
AcDb2dVertex
 10
151.236328125
 20
150.224609375
 30
0.0
  0
SEQEND
  5
58
330
55
100
AcDbEntity
  8
cuerpo
370
    25
  0
ENDBLK
  5
54
330
51
100
AcDbEntity
  8
0
100
AcDbBlockEnd
  0
BLOCK
  5
5B
330
59
100
AcDbEntity
  8
0
100
AcDbBlockBegin
  2
block 6
 70
     0
 71
     0
 10
0.0
 20
0.0
 30
0.0
  3
block 6
  1

  0
POLYLINE
  5
5D
330
59
100
AcDbEntity
  8
cuerpo
 62
     7
420
 16777215
370
    25
100
AcDb2dPolyline
 66
     1
 10
0.0
 20
0.0
 30
0.0
  0
VERTEX
  5
5E
330
5D
100
AcDbEntity
  8
cuerpo
 62
     7
420
 16777215
370
    25
100
AcDbVertex
100
AcDb2dVertex
 10
124.822265625
 20
156.6396484375
 30
0.0
  0
VERTEX
  5
5F
330
5D
100
AcDbEntity
  8
cuerpo
 62
     7
420
 16777215
370
    25
100
AcDbVertex
100
AcDb2dVertex
 10
124.822265625
 20
121.41796875
 30
0.0
  0
SEQEND
  5
60
330
5D
100
AcDbEntity
  8
cuerpo
370
    25
  0
ENDBLK
  5
5C
330
59
100
AcDbEntity
  8
0
100
AcDbBlockEnd
  0
BLOCK
  5
63
330
61
100
AcDbEntity
  8
0
100
AcDbBlockBegin
  2
block 7
 70
     0
 71
     0
 10
0.0
 20
0.0
 30
0.0
  3
block 7
  1

  0
POLYLINE
  5
65
330
61
100
AcDbEntity
  8
cuerpo
 62
     7
420
 16777215
370
    25
100
AcDb2dPolyline
 66
     1
 10
0.0
 20
0.0
 30
0.0
  0
VERTEX
  5
66
330
65
100
AcDbEntity
  8
cuerpo
 62
     7
420
 16777215
370
    25
100
AcDbVertex
100
AcDb2dVertex
 10
124.822265625
 20
121.41796875
 30
0.0
  0
VERTEX
  5
67
330
65
100
AcDbEntity
  8
cuerpo
 62
     7
420
 16777215
370
    25
100
AcDbVertex
100
AcDb2dVertex
 10
114.884765625
 20
121.41796875
 30
0.0
  0
SEQEND
  5
68
330
65
100
AcDbEntity
  8
cuerpo
370
    25
  0
ENDBLK
  5
64
330
61
100
AcDbEntity
  8
0
100
AcDbBlockEnd
  0
BLOCK
  5
6B
330
69
100
AcDbEntity
  8
0
100
AcDbBlockBegin
  2
block 8
 70
     0
 71
     0
 10
0.0
 20
0.0
 30
0.0
  3
block 8
  1

  0
POLYLINE
  5
6D
330
69
100
AcDbEntity
  8
cuerpo
 62
     7
420
 16777215
370
    25
100
AcDb2dPolyline
 66
     1
 10
0.0
 20
0.0
 30
0.0
  0
VERTEX
  5
6E
330
6D
100
AcDbEntity
  8
cuerpo
 62
     7
420
 16777215
370
    25
100
AcDbVertex
100
AcDb2dVertex
 10
114.884765625
 20
156.6396484375
 30
0.0
  0
VERTEX
  5
6F
330
6D
100
AcDbEntity
  8
cuerpo
 62
     7
420
 16777215
370
    25
100
AcDbVertex
100
AcDb2dVertex
 10
124.822265625
 20
156.6396484375
 30
0.0
  0
SEQEND
  5
70
330
6D
100
AcDbEntity
  8
cuerpo
370
    25
  0
ENDBLK
  5
6C
330
69
100
AcDbEntity
  8
0
100
AcDbBlockEnd
  0
BLOCK
  5
73
330
71
100
AcDbEntity
  8
0
100
AcDbBlockBegin
  2
block 9
 70
     0
 71
     0
 10
0.0
 20
0.0
 30
0.0
  3
block 9
  1

  0
POLYLINE
  5
75
330
71
100
AcDbEntity
  8
cuerpo
 62
     7
420
 16777215
370
    25
100
AcDb2dPolyline
 66
     1
 10
0.0
 20
0.0
 30
0.0
  0
VERTEX
  5
76
330
75
100
AcDbEntity
  8
cuerpo
 62
     7
420
 16777215
370
    25
100
AcDbVertex
100
AcDb2dVertex
 10
146.61572265625
 20
218.0576171875
 30
0.0
  0
VERTEX
  5
77
330
75
100
AcDbEntity
  8
cuerpo
 62
     7
420
 16777215
370
    25
100
AcDbVertex
100
AcDb2dVertex
 10
146.61572265625
 20
196.6376953125
 30
0.0
  0
SEQEND
  5
78
330
75
100
AcDbEntity
  8
cuerpo
370
    25
  0
ENDBLK
  5
74
330
71
100
AcDbEntity
  8
0
100
AcDbBlockEnd
  0
BLOCK
  5
7B
330
79
100
AcDbEntity
  8
0
100
AcDbBlockBegin
  2
block 10
 70
     0
 71
     0
 10
0.0
 20
0.0
 30
0.0
  3
block 10
  1

  0
POLYLINE
  5
7D
330
79
100
AcDbEntity
  8
cuerpo
 62
     7
420
 16777215
370
    25
100
AcDb2dPolyline
 66
     1
 10
0.0
 20
0.0
 30
0.0
  0
VERTEX
  5
7E
330
7D
100
AcDbEntity
  8
cuerpo
 62
     7
420
 16777215
370
    25
100
AcDbVertex
100
AcDb2dVertex
 10
146.61572265625
 20
196.6376953125
 30
0.0
  0
VERTEX
  5
7F
330
7D
100
AcDbEntity
  8
cuerpo
 62
     7
420
 16777215
370
    25
100
AcDbVertex
100
AcDb2dVertex
 10
124.59814453125
 20
196.6376953125
 30
0.0
  0
SEQEND
  5
80
330
7D
100
AcDbEntity
  8
cuerpo
370
    25
  0
ENDBLK
  5
7C
330
79
100
AcDbEntity
  8
0
100
AcDbBlockEnd
  0
BLOCK
  5
83
330
81
100
AcDbEntity
  8
0
100
AcDbBlockBegin
  2
block 11
 70
     0
 71
     0
 10
0.0
 20
0.0
 30
0.0
  3
block 11
  1

  0
POLYLINE
  5
85
330
81
100
AcDbEntity
  8
cuerpo
 62
     7
420
 16777215
370
    25
100
AcDb2dPolyline
 66
     1
 10
0.0
 20
0.0
 30
0.0
  0
VERTEX
  5
86
330
85
100
AcDbEntity
  8
cuerpo
 62
     7
420
 16777215
370
    25
100
AcDbVertex
100
AcDb2dVertex
 10
124.59814453125
 20
224.9580078125
 30
0.0
  0
VERTEX
  5
87
330
85
100
AcDbEntity
  8
cuerpo
 62
     7
420
 16777215
370
    25
100
AcDbVertex
100
AcDb2dVertex
 10
124.59814453125
 20
189.7373046875
 30
0.0
  0
SEQEND
  5
88
330
85
100
AcDbEntity
  8
cuerpo
370
    25
  0
ENDBLK
  5
84
330
81
100
AcDbEntity
  8
0
100
AcDbBlockEnd
  0
BLOCK
  5
8B
330
89
100
AcDbEntity
  8
0
100
AcDbBlockBegin
  2
block 12
 70
     0
 71
     0
 10
0.0
 20
0.0
 30
0.0
  3
block 12
  1

  0
POLYLINE
  5
8D
330
89
100
AcDbEntity
  8
cuerpo
 62
     7
420
 16777215
370
    25
100
AcDb2dPolyline
 66
     1
 10
0.0
 20
0.0
 30
0.0
  0
VERTEX
  5
8E
330
8D
100
AcDbEntity
  8
cuerpo
 62
     7
420
 16777215
370
    25
100
AcDbVertex
100
AcDb2dVertex
 10
124.59814453125
 20
189.7373046875
 30
0.0
  0
VERTEX
  5
8F
330
8D
100
AcDbEntity
  8
cuerpo
 62
     7
420
 16777215
370
    25
100
AcDbVertex
100
AcDb2dVertex
 10
114.884765625
 20
189.7373046875
 30
0.0
  0
SEQEND
  5
90
330
8D
100
AcDbEntity
  8
cuerpo
370
    25
  0
ENDBLK
  5
8C
330
89
100
AcDbEntity
  8
0
100
AcDbBlockEnd
  0
BLOCK
  5
93
330
91
100
AcDbEntity
  8
0
100
AcDbBlockBegin
  2
block 13
 70
     0
 71
     0
 10
0.0
 20
0.0
 30
0.0
  3
block 13
  1

  0
POLYLINE
  5
95
330
91
100
AcDbEntity
  8
cuerpo
 62
     7
420
 16777215
370
    25
100
AcDb2dPolyline
 66
     1
 10
0.0
 20
0.0
 30
0.0
  0
VERTEX
  5
96
330
95
100
AcDbEntity
  8
cuerpo
 62
     7
420
 16777215
370
    25
100
AcDbVertex
100
AcDb2dVertex
 10
267.591796875
 20
131.578125
 30
0.0
  0
VERTEX
  5
97
330
95
100
AcDbEntity
  8
cuerpo
 62
     7
420
 16777215
370
    25
100
AcDbVertex
100
AcDb2dVertex
 10
151.236328125
 20
131.578125
 30
0.0
  0
SEQEND
  5
98
330
95
100
AcDbEntity
  8
cuerpo
370
    25
  0
ENDBLK
  5
94
330
91
100
AcDbEntity
  8
0
100
AcDbBlockEnd
  0
BLOCK
  5
9B
330
99
100
AcDbEntity
  8
0
100
AcDbBlockBegin
  2
block 14
 70
     0
 71
     0
 10
0.0
 20
0.0
 30
0.0
  3
block 14
  1

  0
POLYLINE
  5
9D
330
99
100
AcDbEntity
  8
cuerpo
 62
     7
420
 16777215
370
    25
100
AcDb2dPolyline
 66
     1
 10
0.0
 20
0.0
 30
0.0
  0
VERTEX
  5
9E
330
9D
100
AcDbEntity
  8
cuerpo
 62
     7
420
 16777215
370
    25
100
AcDbVertex
100
AcDb2dVertex
 10
151.236328125
 20
146.48046875
 30
0.0
  0
VERTEX
  5
9F
330
9D
100
AcDbEntity
  8
cuerpo
 62
     7
420
 16777215
370
    25
100
AcDbVertex
100
AcDb2dVertex
 10
267.591796875
 20
146.48046875
 30
0.0
  0
SEQEND
  5
A0
330
9D
100
AcDbEntity
  8
cuerpo
370
    25
  0
ENDBLK
  5
9C
330
99
100
AcDbEntity
  8
0
100
AcDbBlockEnd
  0
BLOCK
  5
A3
330
A1
100
AcDbEntity
  8
0
100
AcDbBlockBegin
  2
block 15
 70
     0
 71
     0
 10
0.0
 20
0.0
 30
0.0
  3
block 15
  1

  0
POLYLINE
  5
A5
330
A1
100
AcDbEntity
  8
cuerpo
 62
     7
420
 16777215
370
    25
100
AcDb2dPolyline
 66
     1
 10
0.0
 20
0.0
 30
0.0
  0
VERTEX
  5
A6
330
A5
100
AcDbEntity
  8
cuerpo
 62
     7
420
 16777215
370
    25
100
AcDbVertex
100
AcDb2dVertex
 10
114.884765625
 20
224.9580078125
 30
0.0
  0
VERTEX
  5
A7
330
A5
100
AcDbEntity
  8
cuerpo
 62
     7
420
 16777215
370
    25
100
AcDbVertex
100
AcDb2dVertex
 10
114.884765625
 20
189.7373046875
 30
0.0
  0
SEQEND
  5
A8
330
A5
100
AcDbEntity
  8
cuerpo
370
    25
  0
ENDBLK
  5
A4
330
A1
100
AcDbEntity
  8
0
100
AcDbBlockEnd
  0
BLOCK
  5
AB
330
A9
100
AcDbEntity
  8
0
100
AcDbBlockBegin
  2
block 16
 70
     0
 71
     0
 10
0.0
 20
0.0
 30
0.0
  3
block 16
  1

  0
POLYLINE
  5
AD
330
A9
100
AcDbEntity
  8
cuerpo
 62
     7
420
 16777215
370
    25
100
AcDb2dPolyline
 66
     1
 10
0.0
 20
0.0
 30
0.0
  0
VERTEX
  5
AE
330
AD
100
AcDbEntity
  8
cuerpo
 62
     7
420
 16777215
370
    25
100
AcDbVertex
100
AcDb2dVertex
 10
114.884765625
 20
156.6396484375
 30
0.0
  0
VERTEX
  5
AF
330
AD
100
AcDbEntity
  8
cuerpo
 62
     7
420
 16777215
370
    25
100
AcDbVertex
100
AcDb2dVertex
 10
114.884765625
 20
121.41796875
 30
0.0
  0
SEQEND
  5
B0
330
AD
100
AcDbEntity
  8
cuerpo
370
    25
  0
ENDBLK
  5
AC
330
A9
100
AcDbEntity
  8
0
100
AcDbBlockEnd
  0
BLOCK
  5
B3
330
B1
100
AcDbEntity
  8
0
100
AcDbBlockBegin
  2
block 17
 70
     0
 71
     0
 10
0.0
 20
0.0
 30
0.0
  3
block 17
  1

  0
POLYLINE
  5
B5
330
B1
100
AcDbEntity
  8
cuerpo
 62
     7
420
 16777215
370
    25
100
AcDb2dPolyline
 66
     1
 10
0.0
 20
0.0
 30
0.0
  0
VERTEX
  5
B6
330
B5
100
AcDbEntity
  8
cuerpo
 62
     7
420
 16777215
370
    25
100
AcDbVertex
100
AcDb2dVertex
 10
124.59814453125
 20
224.9580078125
 30
0.0
  0
VERTEX
  5
B7
330
B5
100
AcDbEntity
  8
cuerpo
 62
     7
420
 16777215
370
    25
100
AcDbVertex
100
AcDb2dVertex
 10
114.884765625
 20
224.9580078125
 30
0.0
  0
SEQEND
  5
B8
330
B5
100
AcDbEntity
  8
cuerpo
370
    25
  0
ENDBLK
  5
B4
330
B1
100
AcDbEntity
  8
0
100
AcDbBlockEnd
  0
BLOCK
  5
BB
330
B9
100
AcDbEntity
  8
0
100
AcDbBlockBegin
  2
block 18
 70
     0
 71
     0
 10
0.0
 20
0.0
 30
0.0
  3
block 18
  1

  0
POLYLINE
  5
BD
330
B9
100
AcDbEntity
  8
cuerpo
 62
     7
420
 16777215
370
    25
100
AcDb2dPolyline
 66
     1
 10
0.0
 20
0.0
 30
0.0
  0
VERTEX
  5
BE
330
BD
100
AcDbEntity
  8
cuerpo
 62
     7
420
 16777215
370
    25
100
AcDbVertex
100
AcDb2dVertex
 10
124.59814453125
 20
218.0576171875
 30
0.0
  0
VERTEX
  5
BF
330
BD
100
AcDbEntity
  8
cuerpo
 62
     7
420
 16777215
370
    25
100
AcDbVertex
100
AcDb2dVertex
 10
146.61572265625
 20
218.0576171875
 30
0.0
  0
SEQEND
  5
C0
330
BD
100
AcDbEntity
  8
cuerpo
370
    25
  0
ENDBLK
  5
BC
330
B9
100
AcDbEntity
  8
0
100
AcDbBlockEnd
  0
BLOCK
  5
C3
330
C1
100
AcDbEntity
  8
0
100
AcDbBlockBegin
  2
block 19
 70
     0
 71
     0
 10
0.0
 20
0.0
 30
0.0
  3
block 19
  1

  0
POLYLINE
  5
C5
330
C1
100
AcDbEntity
  8
cuerpo
 62
     7
420
 16777215
370
    25
100
AcDb2dPolyline
 66
     1
 10
0.0
 20
0.0
 30
0.0
  0
VERTEX
  5
C6
330
C5
100
AcDbEntity
  8
cuerpo
 62
     7
420
 16777215
370
    25
100
AcDbVertex
100
AcDb2dVertex
 10
146.61572265625
 20
211.2333984375
 30
0.0
  0
VERTEX
  5
C7
330
C5
100
AcDbEntity
  8
cuerpo
 62
     7
420
 16777215
370
    25
100
AcDbVertex
100
AcDb2dVertex
 10
162.80517578125
 20
211.2333984375
 30
0.0
  0
SEQEND
  5
C8
330
C5
100
AcDbEntity
  8
cuerpo
370
    25
  0
ENDBLK
  5
C4
330
C1
100
AcDbEntity
  8
0
100
AcDbBlockEnd
  0
BLOCK
  5
CB
330
C9
100
AcDbEntity
  8
0
100
AcDbBlockBegin
  2
block 20
 70
     0
 71
     0
 10
0.0
 20
0.0
 30
0.0
  3
block 20
  1

  0
POLYLINE
  5
CD
330
C9
100
AcDbEntity
  8
cuerpo
 62
     7
420
 16777215
370
    25
100
AcDb2dPolyline
 66
     1
 10
0.0
 20
0.0
 30
0.0
  0
VERTEX
  5
CE
330
CD
100
AcDbEntity
  8
cuerpo
 62
     7
420
 16777215
370
    25
100
AcDbVertex
100
AcDb2dVertex
 10
146.61572265625
 20
203.4619140625
 30
0.0
  0
VERTEX
  5
CF
330
CD
100
AcDbEntity
  8
cuerpo
 62
     7
420
 16777215
370
    25
100
AcDbVertex
100
AcDb2dVertex
 10
162.80517578125
 20
203.4619140625
 30
0.0
  0
SEQEND
  5
D0
330
CD
100
AcDbEntity
  8
cuerpo
370
    25
  0
ENDBLK
  5
CC
330
C9
100
AcDbEntity
  8
0
100
AcDbBlockEnd
  0
BLOCK
  5
D3
330
D1
100
AcDbEntity
  8
0
100
AcDbBlockBegin
  2
block 21
 70
     0
 71
     0
 10
0.0
 20
0.0
 30
0.0
  3
block 21
  1

  0
SPLINE
  5
D5
330
D1
100
AcDbEntity
  8
cuerpo
 62
     7
420
 16777215
370
    25
100
AcDbSpline
210
0.0
220
0.0
230
1.0
 70
     8
 71
     3
 72
    14
 73
    10
 74
     0
 42
0.0000000001
 43
0.0000000001
 40
0.0
 40
0.0
 40
0.0
 40
0.0
 40
1.0
 40
1.0
 40
1.0
 40
2.0
 40
2.0
 40
2.0
 40
3.0
 40
3.0
 40
3.0
 40
3.0
 10
169.28076171875
 20
210.9619140625
 30
0.0
 10
167.322265625
 20
212.2138671875
 30
0.0
 10
164.71923828125
 20
211.6396484375
 30
0.0
 10
163.4677734375
 20
209.6806640625
 30
0.0
 10
162.2158203125
 20
207.7216796875
 30
0.0
 10
162.7890625
 20
205.1201171875
 30
0.0
 10
164.748046875
 20
203.8681640625
 30
0.0
 10
166.1298828125
 20
202.9853515625
 30
0.0
 10
167.89892578125
 20
202.9853515625
 30
0.0
 10
169.28076171875
 20
203.8681640625
 30
0.0
  0
ENDBLK
  5
D4
330
D1
100
AcDbEntity
  8
0
100
AcDbBlockEnd
  0
BLOCK
  5
D8
330
D6
100
AcDbEntity
  8
0
100
AcDbBlockBegin
  2
block 22
 70
     0
 71
     0
 10
0.0
 20
0.0
 30
0.0
  3
block 22
  1

  0
POLYLINE
  5
DA
330
D6
100
AcDbEntity
  8
cuerpo
 62
     7
420
 16777215
370
    25
100
AcDb2dPolyline
 66
     1
 10
0.0
 20
0.0
 30
0.0
  0
VERTEX
  5
DB
330
DA
100
AcDbEntity
  8
cuerpo
 62
     7
420
 16777215
370
    25
100
AcDbVertex
100
AcDb2dVertex
 10
169.28076171875
 20
210.9619140625
 30
0.0
  0
VERTEX
  5
DC
330
DA
100
AcDbEntity
  8
cuerpo
 62
     7
420
 16777215
370
    25
100
AcDbVertex
100
AcDb2dVertex
 10
169.28076171875
 20
203.8681640625
 30
0.0
  0
SEQEND
  5
DD
330
DA
100
AcDbEntity
  8
cuerpo
370
    25
  0
ENDBLK
  5
D9
330
D6
100
AcDbEntity
  8
0
100
AcDbBlockEnd
  0
BLOCK
  5
E0
330
DE
100
AcDbEntity
  8
0
100
AcDbBlockBegin
  2
block 23
 70
     0
 71
     0
 10
0.0
 20
0.0
 30
0.0
  3
block 23
  1

  0
POLYLINE
  5
E2
330
DE
100
AcDbEntity
  8
cuerpo
 62
     7
420
 16777215
370
    25
100
AcDb2dPolyline
 66
     1
 10
0.0
 20
0.0
 30
0.0
  0
VERTEX
  5
E3
330
E2
100
AcDbEntity
  8
cuerpo
 62
     7
420
 16777215
370
    25
100
AcDbVertex
100
AcDb2dVertex
 10
169.28076171875
 20
207.4150390625
 30
0.0
  0
VERTEX
  5
E4
330
E2
100
AcDbEntity
  8
cuerpo
 62
     7
420
 16777215
370
    25
100
AcDbVertex
100
AcDb2dVertex
 10
169.28076171875
 20
228.7841796875
 30
0.0
  0
SEQEND
  5
E5
330
E2
100
AcDbEntity
  8
cuerpo
370
    25
  0
ENDBLK
  5
E1
330
DE
100
AcDbEntity
  8
0
100
AcDbBlockEnd
  0
BLOCK
  5
E8
330
E6
100
AcDbEntity
  8
0
100
AcDbBlockBegin
  2
block 24
 70
     0
 71
     0
 10
0.0
 20
0.0
 30
0.0
  3
block 24
  1

  0
POLYLINE
  5
EA
330
E6
100
AcDbEntity
  8
cuerpo
 62
     7
420
 16777215
370
    25
100
AcDb2dPolyline
 66
     1
 10
0.0
 20
0.0
 30
0.0
  0
VERTEX
  5
EB
330
EA
100
AcDbEntity
  8
cuerpo
 62
     7
420
 16777215
370
    25
100
AcDbVertex
100
AcDb2dVertex
 10
169.28076171875
 20
228.7841796875
 30
0.0
  0
VERTEX
  5
EC
330
EA
100
AcDbEntity
  8
cuerpo
 62
     7
420
 16777215
370
    25
100
AcDbVertex
100
AcDb2dVertex
 10
162.80517578125
 20
228.7841796875
 30
0.0
  0
SEQEND
  5
ED
330
EA
100
AcDbEntity
  8
cuerpo
370
    25
  0
ENDBLK
  5
E9
330
E6
100
AcDbEntity
  8
0
100
AcDbBlockEnd
  0
BLOCK
  5
F0
330
EE
100
AcDbEntity
  8
0
100
AcDbBlockBegin
  2
block 25
 70
     0
 71
     0
 10
0.0
 20
0.0
 30
0.0
  3
block 25
  1

  0
POLYLINE
  5
F2
330
EE
100
AcDbEntity
  8
cuerpo
 62
     7
420
 16777215
370
    25
100
AcDb2dPolyline
 66
     1
 10
0.0
 20
0.0
 30
0.0
  0
VERTEX
  5
F3
330
F2
100
AcDbEntity
  8
cuerpo
 62
     7
420
 16777215
370
    25
100
AcDbVertex
100
AcDb2dVertex
 10
162.80517578125
 20
228.7841796875
 30
0.0
  0
VERTEX
  5
F4
330
F2
100
AcDbEntity
  8
cuerpo
 62
     7
420
 16777215
370
    25
100
AcDbVertex
100
AcDb2dVertex
 10
162.80517578125
 20
211.2333984375
 30
0.0
  0
SEQEND
  5
F5
330
F2
100
AcDbEntity
  8
cuerpo
370
    25
  0
ENDBLK
  5
F1
330
EE
100
AcDbEntity
  8
0
100
AcDbBlockEnd
  0
BLOCK
  5
F8
330
F6
100
AcDbEntity
  8
0
100
AcDbBlockBegin
  2
block 26
 70
     0
 71
     0
 10
0.0
 20
0.0
 30
0.0
  3
block 26
  1

  0
POLYLINE
  5
FA
330
F6
100
AcDbEntity
  8
cuerpo
 62
     7
420
 16777215
370
    25
100
AcDb2dPolyline
 66
     1
 10
0.0
 20
0.0
 30
0.0
  0
VERTEX
  5
FB
330
FA
100
AcDbEntity
  8
cuerpo
 62
     7
420
 16777215
370
    25
100
AcDbVertex
100
AcDb2dVertex
 10
169.28076171875
 20
207.28125
 30
0.0
  0
VERTEX
  5
FC
330
FA
100
AcDbEntity
  8
cuerpo
 62
     7
420
 16777215
370
    25
100
AcDbVertex
100
AcDb2dVertex
 10
169.28076171875
 20
185.9111328125
 30
0.0
  0
SEQEND
  5
FD
330
FA
100
AcDbEntity
  8
cuerpo
370
    25
  0
ENDBLK
  5
F9
330
F6
100
AcDbEntity
  8
0
100
AcDbBlockEnd
  0
BLOCK
  5
100
330
FE
100
AcDbEntity
  8
0
100
AcDbBlockBegin
  2
block 27
 70
     0
 71
     0
 10
0.0
 20
0.0
 30
0.0
  3
block 27
  1

  0
POLYLINE
  5
102
330
FE
100
AcDbEntity
  8
cuerpo
 62
     7
420
 16777215
370
    25
100
AcDb2dPolyline
 66
     1
 10
0.0
 20
0.0
 30
0.0
  0
VERTEX
  5
103
330
102
100
AcDbEntity
  8
cuerpo
 62
     7
420
 16777215
370
    25
100
AcDbVertex
100
AcDb2dVertex
 10
169.28076171875
 20
185.9111328125
 30
0.0
  0
VERTEX
  5
104
330
102
100
AcDbEntity
  8
cuerpo
 62
     7
420
 16777215
370
    25
100
AcDbVertex
100
AcDb2dVertex
 10
162.80517578125
 20
185.9111328125
 30
0.0
  0
SEQEND
  5
105
330
102
100
AcDbEntity
  8
cuerpo
370
    25
  0
ENDBLK
  5
101
330
FE
100
AcDbEntity
  8
0
100
AcDbBlockEnd
  0
BLOCK
  5
108
330
106
100
AcDbEntity
  8
0
100
AcDbBlockBegin
  2
block 28
 70
     0
 71
     0
 10
0.0
 20
0.0
 30
0.0
  3
block 28
  1

  0
POLYLINE
  5
10A
330
106
100
AcDbEntity
  8
cuerpo
 62
     7
420
 16777215
370
    25
100
AcDb2dPolyline
 66
     1
 10
0.0
 20
0.0
 30
0.0
  0
VERTEX
  5
10B
330
10A
100
AcDbEntity
  8
cuerpo
 62
     7
420
 16777215
370
    25
100
AcDbVertex
100
AcDb2dVertex
 10
162.80517578125
 20
211.2333984375
 30
0.0
  0
VERTEX
  5
10C
330
10A
100
AcDbEntity
  8
cuerpo
 62
     7
420
 16777215
370
    25
100
AcDbVertex
100
AcDb2dVertex
 10
163.84912109375
 20
210.189453125
 30
0.0
  0
SEQEND
  5
10D
330
10A
100
AcDbEntity
  8
cuerpo
370
    25
  0
ENDBLK
  5
109
330
106
100
AcDbEntity
  8
0
100
AcDbBlockEnd
  0
BLOCK
  5
110
330
10E
100
AcDbEntity
  8
0
100
AcDbBlockBegin
  2
block 29
 70
     0
 71
     0
 10
0.0
 20
0.0
 30
0.0
  3
block 29
  1

  0
POLYLINE
  5
112
330
10E
100
AcDbEntity
  8
cuerpo
 62
     7
420
 16777215
370
    25
100
AcDb2dPolyline
 66
     1
 10
0.0
 20
0.0
 30
0.0
  0
VERTEX
  5
113
330
112
100
AcDbEntity
  8
cuerpo
 62
     7
420
 16777215
370
    25
100
AcDbVertex
100
AcDb2dVertex
 10
169.28076171875
 20
185.9111328125
 30
0.0
  0
VERTEX
  5
114
330
112
100
AcDbEntity
  8
cuerpo
 62
     7
420
 16777215
370
    25
100
AcDbVertex
100
AcDb2dVertex
 10
162.80517578125
 20
185.9111328125
 30
0.0
  0
SEQEND
  5
115
330
112
100
AcDbEntity
  8
cuerpo
370
    25
  0
ENDBLK
  5
111
330
10E
100
AcDbEntity
  8
0
100
AcDbBlockEnd
  0
BLOCK
  5
118
330
116
100
AcDbEntity
  8
0
100
AcDbBlockBegin
  2
block 30
 70
     0
 71
     0
 10
0.0
 20
0.0
 30
0.0
  3
block 30
  1

  0
POLYLINE
  5
11A
330
116
100
AcDbEntity
  8
cuerpo
 62
     7
420
 16777215
370
    25
100
AcDb2dPolyline
 66
     1
 10
0.0
 20
0.0
 30
0.0
  0
VERTEX
  5
11B
330
11A
100
AcDbEntity
  8
cuerpo
 62
     7
420
 16777215
370
    25
100
AcDbVertex
100
AcDb2dVertex
 10
162.80517578125
 20
185.9111328125
 30
0.0
  0
VERTEX
  5
11C
330
11A
100
AcDbEntity
  8
cuerpo
 62
     7
420
 16777215
370
    25
100
AcDbVertex
100
AcDb2dVertex
 10
162.80517578125
 20
203.4619140625
 30
0.0
  0
SEQEND
  5
11D
330
11A
100
AcDbEntity
  8
cuerpo
370
    25
  0
ENDBLK
  5
119
330
116
100
AcDbEntity
  8
0
100
AcDbBlockEnd
  0
BLOCK
  5
120
330
11E
100
AcDbEntity
  8
0
100
AcDbBlockBegin
  2
block 31
 70
     0
 71
     0
 10
0.0
 20
0.0
 30
0.0
  3
block 31
  1

  0
POLYLINE
  5
122
330
11E
100
AcDbEntity
  8
cuerpo
 62
     7
420
 16777215
370
    25
100
AcDb2dPolyline
 66
     1
 10
0.0
 20
0.0
 30
0.0
  0
VERTEX
  5
123
330
122
100
AcDbEntity
  8
cuerpo
 62
     7
420
 16777215
370
    25
100
AcDbVertex
100
AcDb2dVertex
 10
162.80517578125
 20
203.4619140625
 30
0.0
  0
VERTEX
  5
124
330
122
100
AcDbEntity
  8
cuerpo
 62
     7
420
 16777215
370
    25
100
AcDbVertex
100
AcDb2dVertex
 10
163.84912109375
 20
204.5068359375
 30
0.0
  0
SEQEND
  5
125
330
122
100
AcDbEntity
  8
cuerpo
370
    25
  0
ENDBLK
  5
121
330
11E
100
AcDbEntity
  8
0
100
AcDbBlockEnd
  0
BLOCK
  5
128
330
126
100
AcDbEntity
  8
0
100
AcDbBlockBegin
  2
block 32
 70
     0
 71
     0
 10
0.0
 20
0.0
 30
0.0
  3
block 32
  1

  0
POLYLINE
  5
12A
330
126
100
AcDbEntity
  8
cuerpo
 62
     7
420
 16777215
370
    25
100
AcDb2dPolyline
 66
     1
 10
0.0
 20
0.0
 30
0.0
  0
VERTEX
  5
12B
330
12A
100
AcDbEntity
  8
cuerpo
 62
     7
420
 16777215
370
    25
100
AcDbVertex
100
AcDb2dVertex
 10
114.884765625
 20
156.0283203125
 30
0.0
  0
VERTEX
  5
12C
330
12A
100
AcDbEntity
  8
cuerpo
 62
     7
420
 16777215
370
    25
100
AcDbVertex
100
AcDb2dVertex
 10
114.884765625
 20
122.0302734375
 30
0.0
  0
SEQEND
  5
12D
330
12A
100
AcDbEntity
  8
cuerpo
370
    25
  0
ENDBLK
  5
129
330
126
100
AcDbEntity
  8
0
100
AcDbBlockEnd
  0
BLOCK
  5
130
330
12E
100
AcDbEntity
  8
0
100
AcDbBlockBegin
  2
block 33
 70
     0
 71
     0
 10
0.0
 20
0.0
 30
0.0
  3
block 33
  1

  0
POLYLINE
  5
132
330
12E
100
AcDbEntity
  8
cuerpo
 62
     7
420
 16777215
370
    25
100
AcDb2dPolyline
 66
     1
 10
0.0
 20
0.0
 30
0.0
  0
VERTEX
  5
133
330
132
100
AcDbEntity
  8
cuerpo
 62
     7
420
 16777215
370
    25
100
AcDbVertex
100
AcDb2dVertex
 10
114.884765625
 20
130.6103515625
 30
0.0
  0
VERTEX
  5
134
330
132
100
AcDbEntity
  8
cuerpo
 62
     7
420
 16777215
370
    25
100
AcDbVertex
100
AcDb2dVertex
 10
114.884765625
 20
148.0947265625
 30
0.0
  0
SEQEND
  5
135
330
132
100
AcDbEntity
  8
cuerpo
370
    25
  0
ENDBLK
  5
131
330
12E
100
AcDbEntity
  8
0
100
AcDbBlockEnd
  0
BLOCK
  5
138
330
136
100
AcDbEntity
  8
0
100
AcDbBlockBegin
  2
block 34
 70
     0
 71
     0
 10
0.0
 20
0.0
 30
0.0
  3
block 34
  1

  0
POLYLINE
  5
13A
330
136
100
AcDbEntity
  8
cuerpo
 62
     7
420
 16777215
370
    25
100
AcDb2dPolyline
 66
     1
 10
0.0
 20
0.0
 30
0.0
  0
VERTEX
  5
13B
330
13A
100
AcDbEntity
  8
cuerpo
 62
     7
420
 16777215
370
    25
100
AcDbVertex
100
AcDb2dVertex
 10
84.9755859375
 20
151.65625
 30
0.0
  0
VERTEX
  5
13C
330
13A
100
AcDbEntity
  8
cuerpo
 62
     7
420
 16777215
370
    25
100
AcDbVertex
100
AcDb2dVertex
 10
84.9755859375
 20
126.4013671875
 30
0.0
  0
SEQEND
  5
13D
330
13A
100
AcDbEntity
  8
cuerpo
370
    25
  0
ENDBLK
  5
139
330
136
100
AcDbEntity
  8
0
100
AcDbBlockEnd
  0
BLOCK
  5
140
330
13E
100
AcDbEntity
  8
0
100
AcDbBlockBegin
  2
block 35
 70
     0
 71
     0
 10
0.0
 20
0.0
 30
0.0
  3
block 35
  1

  0
POLYLINE
  5
142
330
13E
100
AcDbEntity
  8
cuerpo
 62
     7
420
 16777215
370
    25
100
AcDb2dPolyline
 66
     1
 10
0.0
 20
0.0
 30
0.0
  0
VERTEX
  5
143
330
142
100
AcDbEntity
  8
cuerpo
 62
     7
420
 16777215
370
    25
100
AcDbVertex
100
AcDb2dVertex
 10
100.51708984375
 20
151.65625
 30
0.0
  0
VERTEX
  5
144
330
142
100
AcDbEntity
  8
cuerpo
 62
     7
420
 16777215
370
    25
100
AcDbVertex
100
AcDb2dVertex
 10
100.51708984375
 20
146.7998046875
 30
0.0
  0
SEQEND
  5
145
330
142
100
AcDbEntity
  8
cuerpo
370
    25
  0
ENDBLK
  5
141
330
13E
100
AcDbEntity
  8
0
100
AcDbBlockEnd
  0
BLOCK
  5
148
330
146
100
AcDbEntity
  8
0
100
AcDbBlockBegin
  2
block 36
 70
     0
 71
     0
 10
0.0
 20
0.0
 30
0.0
  3
block 36
  1

  0
POLYLINE
  5
14A
330
146
100
AcDbEntity
  8
cuerpo
 62
     7
420
 16777215
370
    25
100
AcDb2dPolyline
 66
     1
 10
0.0
 20
0.0
 30
0.0
  0
VERTEX
  5
14B
330
14A
100
AcDbEntity
  8
cuerpo
 62
     7
420
 16777215
370
    25
100
AcDbVertex
100
AcDb2dVertex
 10
100.51708984375
 20
131.2578125
 30
0.0
  0
VERTEX
  5
14C
330
14A
100
AcDbEntity
  8
cuerpo
 62
     7
420
 16777215
370
    25
100
AcDbVertex
100
AcDb2dVertex
 10
100.51708984375
 20
126.4013671875
 30
0.0
  0
SEQEND
  5
14D
330
14A
100
AcDbEntity
  8
cuerpo
370
    25
  0
ENDBLK
  5
149
330
146
100
AcDbEntity
  8
0
100
AcDbBlockEnd
  0
BLOCK
  5
150
330
14E
100
AcDbEntity
  8
0
100
AcDbBlockBegin
  2
block 37
 70
     0
 71
     0
 10
0.0
 20
0.0
 30
0.0
  3
block 37
  1

  0
POLYLINE
  5
152
330
14E
100
AcDbEntity
  8
cuerpo
 62
     7
420
 16777215
370
    25
100
AcDb2dPolyline
 66
     1
 10
0.0
 20
0.0
 30
0.0
  0
VERTEX
  5
153
330
152
100
AcDbEntity
  8
cuerpo
 62
     7
420
 16777215
370
    25
100
AcDbVertex
100
AcDb2dVertex
 10
100.51708984375
 20
131.2578125
 30
0.0
  0
VERTEX
  5
154
330
152
100
AcDbEntity
  8
cuerpo
 62
     7
420
 16777215
370
    25
100
AcDbVertex
100
AcDb2dVertex
 10
104.7265625
 20
131.2578125
 30
0.0
  0
SEQEND
  5
155
330
152
100
AcDbEntity
  8
cuerpo
370
    25
  0
ENDBLK
  5
151
330
14E
100
AcDbEntity
  8
0
100
AcDbBlockEnd
  0
BLOCK
  5
158
330
156
100
AcDbEntity
  8
0
100
AcDbBlockBegin
  2
block 38
 70
     0
 71
     0
 10
0.0
 20
0.0
 30
0.0
  3
block 38
  1

  0
POLYLINE
  5
15A
330
156
100
AcDbEntity
  8
cuerpo
 62
     7
420
 16777215
370
    25
100
AcDb2dPolyline
 66
     1
 10
0.0
 20
0.0
 30
0.0
  0
VERTEX
  5
15B
330
15A
100
AcDbEntity
  8
cuerpo
 62
     7
420
 16777215
370
    25
100
AcDbVertex
100
AcDb2dVertex
 10
100.51708984375
 20
146.7998046875
 30
0.0
  0
VERTEX
  5
15C
330
15A
100
AcDbEntity
  8
cuerpo
 62
     7
420
 16777215
370
    25
100
AcDbVertex
100
AcDb2dVertex
 10
104.7265625
 20
146.7998046875
 30
0.0
  0
SEQEND
  5
15D
330
15A
100
AcDbEntity
  8
cuerpo
370
    25
  0
ENDBLK
  5
159
330
156
100
AcDbEntity
  8
0
100
AcDbBlockEnd
  0
BLOCK
  5
160
330
15E
100
AcDbEntity
  8
0
100
AcDbBlockBegin
  2
block 39
 70
     0
 71
     0
 10
0.0
 20
0.0
 30
0.0
  3
block 39
  1

  0
POLYLINE
  5
162
330
15E
100
AcDbEntity
  8
cuerpo
 62
     7
420
 16777215
370
    25
100
AcDb2dPolyline
 66
     1
 10
0.0
 20
0.0
 30
0.0
  0
VERTEX
  5
163
330
162
100
AcDbEntity
  8
cuerpo
 62
     7
420
 16777215
370
    25
100
AcDbVertex
100
AcDb2dVertex
 10
100.51708984375
 20
124.134765625
 30
0.0
  0
VERTEX
  5
164
330
162
100
AcDbEntity
  8
cuerpo
 62
     7
420
 16777215
370
    25
100
AcDbVertex
100
AcDb2dVertex
 10
84.9755859375
 20
124.134765625
 30
0.0
  0
SEQEND
  5
165
330
162
100
AcDbEntity
  8
cuerpo
370
    25
  0
ENDBLK
  5
161
330
15E
100
AcDbEntity
  8
0
100
AcDbBlockEnd
  0
BLOCK
  5
168
330
166
100
AcDbEntity
  8
0
100
AcDbBlockBegin
  2
block 40
 70
     0
 71
     0
 10
0.0
 20
0.0
 30
0.0
  3
block 40
  1

  0
POLYLINE
  5
16A
330
166
100
AcDbEntity
  8
cuerpo
 62
     7
420
 16777215
370
    25
100
AcDb2dPolyline
 66
     1
 10
0.0
 20
0.0
 30
0.0
  0
VERTEX
  5
16B
330
16A
100
AcDbEntity
  8
cuerpo
 62
     7
420
 16777215
370
    25
100
AcDbVertex
100
AcDb2dVertex
 10
100.51708984375
 20
153.9228515625
 30
0.0
  0
VERTEX
  5
16C
330
16A
100
AcDbEntity
  8
cuerpo
 62
     7
420
 16777215
370
    25
100
AcDbVertex
100
AcDb2dVertex
 10
84.9755859375
 20
153.9228515625
 30
0.0
  0
SEQEND
  5
16D
330
16A
100
AcDbEntity
  8
cuerpo
370
    25
  0
ENDBLK
  5
169
330
166
100
AcDbEntity
  8
0
100
AcDbBlockEnd
  0
BLOCK
  5
170
330
16E
100
AcDbEntity
  8
0
100
AcDbBlockBegin
  2
block 41
 70
     0
 71
     0
 10
0.0
 20
0.0
 30
0.0
  3
block 41
  1

  0
POLYLINE
  5
172
330
16E
100
AcDbEntity
  8
cuerpo
 62
     7
420
 16777215
370
    25
100
AcDb2dPolyline
 66
     1
 10
0.0
 20
0.0
 30
0.0
  0
VERTEX
  5
173
330
172
100
AcDbEntity
  8
cuerpo
 62
     7
420
 16777215
370
    25
100
AcDbVertex
100
AcDb2dVertex
 10
106.9931640625
 20
146.7998046875
 30
0.0
  0
VERTEX
  5
174
330
172
100
AcDbEntity
  8
cuerpo
 62
     7
420
 16777215
370
    25
100
AcDbVertex
100
AcDb2dVertex
 10
106.9931640625
 20
131.2578125
 30
0.0
  0
SEQEND
  5
175
330
172
100
AcDbEntity
  8
cuerpo
370
    25
  0
ENDBLK
  5
171
330
16E
100
AcDbEntity
  8
0
100
AcDbBlockEnd
  0
BLOCK
  5
178
330
176
100
AcDbEntity
  8
0
100
AcDbBlockBegin
  2
block 42
 70
     0
 71
     0
 10
0.0
 20
0.0
 30
0.0
  3
block 42
  1

  0
POLYLINE
  5
17A
330
176
100
AcDbEntity
  8
cuerpo
 62
     7
420
 16777215
370
    25
100
AcDb2dPolyline
 66
     1
 10
0.0
 20
0.0
 30
0.0
  0
VERTEX
  5
17B
330
17A
100
AcDbEntity
  8
cuerpo
 62
     7
420
 16777215
370
    25
100
AcDbVertex
100
AcDb2dVertex
 10
100.8408203125
 20
124.134765625
 30
0.0
  0
VERTEX
  5
17C
330
17A
100
AcDbEntity
  8
cuerpo
 62
     7
420
 16777215
370
    25
100
AcDbVertex
100
AcDb2dVertex
 10
84.6513671875
 20
124.134765625
 30
0.0
  0
SEQEND
  5
17D
330
17A
100
AcDbEntity
  8
cuerpo
370
    25
  0
ENDBLK
  5
179
330
176
100
AcDbEntity
  8
0
100
AcDbBlockEnd
  0
BLOCK
  5
180
330
17E
100
AcDbEntity
  8
0
100
AcDbBlockBegin
  2
block 43
 70
     0
 71
     0
 10
0.0
 20
0.0
 30
0.0
  3
block 43
  1

  0
SPLINE
  5
182
330
17E
100
AcDbEntity
  8
cuerpo
 62
     7
420
 16777215
370
    25
100
AcDbSpline
210
0.0
220
0.0
230
1.0
 70
     8
 71
     3
 72
     8
 73
     4
 74
     0
 42
0.0000000001
 43
0.0000000001
 40
0.0
 40
0.0
 40
0.0
 40
0.0
 40
1.0
 40
1.0
 40
1.0
 40
1.0
 10
83.68017578125
 20
125.10546875
 30
0.0
 10
83.68017578125
 20
124.5693359375
 30
0.0
 10
84.115234375
 20
124.134765625
 30
0.0
 10
84.6513671875
 20
124.134765625
 30
0.0
  0
ENDBLK
  5
181
330
17E
100
AcDbEntity
  8
0
100
AcDbBlockEnd
  0
BLOCK
  5
185
330
183
100
AcDbEntity
  8
0
100
AcDbBlockBegin
  2
block 44
 70
     0
 71
     0
 10
0.0
 20
0.0
 30
0.0
  3
block 44
  1

  0
POLYLINE
  5
187
330
183
100
AcDbEntity
  8
cuerpo
 62
     7
420
 16777215
370
    25
100
AcDb2dPolyline
 66
     1
 10
0.0
 20
0.0
 30
0.0
  0
VERTEX
  5
188
330
187
100
AcDbEntity
  8
cuerpo
 62
     7
420
 16777215
370
    25
100
AcDbVertex
100
AcDb2dVertex
 10
83.68017578125
 20
125.10546875
 30
0.0
  0
VERTEX
  5
189
330
187
100
AcDbEntity
  8
cuerpo
 62
     7
420
 16777215
370
    25
100
AcDbVertex
100
AcDb2dVertex
 10
83.68017578125
 20
125.4296875
 30
0.0
  0
SEQEND
  5
18A
330
187
100
AcDbEntity
  8
cuerpo
370
    25
  0
ENDBLK
  5
186
330
183
100
AcDbEntity
  8
0
100
AcDbBlockEnd
  0
BLOCK
  5
18D
330
18B
100
AcDbEntity
  8
0
100
AcDbBlockBegin
  2
block 45
 70
     0
 71
     0
 10
0.0
 20
0.0
 30
0.0
  3
block 45
  1

  0
POLYLINE
  5
18F
330
18B
100
AcDbEntity
  8
cuerpo
 62
     7
420
 16777215
370
    25
100
AcDb2dPolyline
 66
     1
 10
0.0
 20
0.0
 30
0.0
  0
VERTEX
  5
190
330
18F
100
AcDbEntity
  8
cuerpo
 62
     7
420
 16777215
370
    25
100
AcDbVertex
100
AcDb2dVertex
 10
84.6513671875
 20
126.4013671875
 30
0.0
  0
VERTEX
  5
191
330
18F
100
AcDbEntity
  8
cuerpo
 62
     7
420
 16777215
370
    25
100
AcDbVertex
100
AcDb2dVertex
 10
100.8408203125
 20
126.4013671875
 30
0.0
  0
SEQEND
  5
192
330
18F
100
AcDbEntity
  8
cuerpo
370
    25
  0
ENDBLK
  5
18E
330
18B
100
AcDbEntity
  8
0
100
AcDbBlockEnd
  0
BLOCK
  5
195
330
193
100
AcDbEntity
  8
0
100
AcDbBlockBegin
  2
block 46
 70
     0
 71
     0
 10
0.0
 20
0.0
 30
0.0
  3
block 46
  1

  0
SPLINE
  5
197
330
193
100
AcDbEntity
  8
cuerpo
 62
     7
420
 16777215
370
    25
100
AcDbSpline
210
0.0
220
0.0
230
1.0
 70
     8
 71
     3
 72
     8
 73
     4
 74
     0
 42
0.0000000001
 43
0.0000000001
 40
0.0
 40
0.0
 40
0.0
 40
0.0
 40
1.0
 40
1.0
 40
1.0
 40
1.0
 10
84.6513671875
 20
126.4013671875
 30
0.0
 10
84.115234375
 20
126.4013671875
 30
0.0
 10
83.68017578125
 20
125.9658203125
 30
0.0
 10
83.68017578125
 20
125.4296875
 30
0.0
  0
ENDBLK
  5
196
330
193
100
AcDbEntity
  8
0
100
AcDbBlockEnd
  0
BLOCK
  5
19A
330
198
100
AcDbEntity
  8
0
100
AcDbBlockBegin
  2
block 47
 70
     0
 71
     0
 10
0.0
 20
0.0
 30
0.0
  3
block 47
  1

  0
POLYLINE
  5
19C
330
198
100
AcDbEntity
  8
cuerpo
 62
     7
420
 16777215
370
    25
100
AcDb2dPolyline
 66
     1
 10
0.0
 20
0.0
 30
0.0
  0
VERTEX
  5
19D
330
19C
100
AcDbEntity
  8
cuerpo
 62
     7
420
 16777215
370
    25
100
AcDbVertex
100
AcDb2dVertex
 10
101.8125
 20
125.4296875
 30
0.0
  0
VERTEX
  5
19E
330
19C
100
AcDbEntity
  8
cuerpo
 62
     7
420
 16777215
370
    25
100
AcDbVertex
100
AcDb2dVertex
 10
101.8125
 20
125.10546875
 30
0.0
  0
SEQEND
  5
19F
330
19C
100
AcDbEntity
  8
cuerpo
370
    25
  0
ENDBLK
  5
19B
330
198
100
AcDbEntity
  8
0
100
AcDbBlockEnd
  0
BLOCK
  5
1A2
330
1A0
100
AcDbEntity
  8
0
100
AcDbBlockBegin
  2
block 48
 70
     0
 71
     0
 10
0.0
 20
0.0
 30
0.0
  3
block 48
  1

  0
SPLINE
  5
1A4
330
1A0
100
AcDbEntity
  8
cuerpo
 62
     7
420
 16777215
370
    25
100
AcDbSpline
210
0.0
220
0.0
230
1.0
 70
     8
 71
     3
 72
     8
 73
     4
 74
     0
 42
0.0000000001
 43
0.0000000001
 40
0.0
 40
0.0
 40
0.0
 40
0.0
 40
1.0
 40
1.0
 40
1.0
 40
1.0
 10
101.8125
 20
125.4296875
 30
0.0
 10
101.8125
 20
125.9658203125
 30
0.0
 10
101.37744140625
 20
126.4013671875
 30
0.0
 10
100.8408203125
 20
126.4013671875
 30
0.0
  0
ENDBLK
  5
1A3
330
1A0
100
AcDbEntity
  8
0
100
AcDbBlockEnd
  0
BLOCK
  5
1A7
330
1A5
100
AcDbEntity
  8
0
100
AcDbBlockBegin
  2
block 49
 70
     0
 71
     0
 10
0.0
 20
0.0
 30
0.0
  3
block 49
  1

  0
SPLINE
  5
1A9
330
1A5
100
AcDbEntity
  8
cuerpo
 62
     7
420
 16777215
370
    25
100
AcDbSpline
210
0.0
220
0.0
230
1.0
 70
     8
 71
     3
 72
     8
 73
     4
 74
     0
 42
0.0000000001
 43
0.0000000001
 40
0.0
 40
0.0
 40
0.0
 40
0.0
 40
1.0
 40
1.0
 40
1.0
 40
1.0
 10
100.8408203125
 20
124.134765625
 30
0.0
 10
101.37744140625
 20
124.134765625
 30
0.0
 10
101.8125
 20
124.5693359375
 30
0.0
 10
101.8125
 20
125.10546875
 30
0.0
  0
ENDBLK
  5
1A8
330
1A5
100
AcDbEntity
  8
0
100
AcDbBlockEnd
  0
BLOCK
  5
1AC
330
1AA
100
AcDbEntity
  8
0
100
AcDbBlockBegin
  2
block 50
 70
     0
 71
     0
 10
0.0
 20
0.0
 30
0.0
  3
block 50
  1

  0
POLYLINE
  5
1AE
330
1AA
100
AcDbEntity
  8
cuerpo
 62
     7
420
 16777215
370
    25
100
AcDb2dPolyline
 66
     1
 10
0.0
 20
0.0
 30
0.0
  0
VERTEX
  5
1AF
330
1AE
100
AcDbEntity
  8
cuerpo
 62
     7
420
 16777215
370
    25
100
AcDbVertex
100
AcDb2dVertex
 10
100.51708984375
 20
153.9228515625
 30
0.0
  0
VERTEX
  5
1B0
330
1AE
100
AcDbEntity
  8
cuerpo
 62
     7
420
 16777215
370
    25
100
AcDbVertex
100
AcDb2dVertex
 10
84.9755859375
 20
153.9228515625
 30
0.0
  0
SEQEND
  5
1B1
330
1AE
100
AcDbEntity
  8
cuerpo
370
    25
  0
ENDBLK
  5
1AD
330
1AA
100
AcDbEntity
  8
0
100
AcDbBlockEnd
  0
BLOCK
  5
1B4
330
1B2
100
AcDbEntity
  8
0
100
AcDbBlockBegin
  2
block 51
 70
     0
 71
     0
 10
0.0
 20
0.0
 30
0.0
  3
block 51
  1

  0
POLYLINE
  5
1B6
330
1B2
100
AcDbEntity
  8
cuerpo
 62
     7
420
 16777215
370
    25
100
AcDb2dPolyline
 66
     1
 10
0.0
 20
0.0
 30
0.0
  0
VERTEX
  5
1B7
330
1B6
100
AcDbEntity
  8
cuerpo
 62
     7
420
 16777215
370
    25
100
AcDbVertex
100
AcDb2dVertex
 10
100.8408203125
 20
153.9228515625
 30
0.0
  0
VERTEX
  5
1B8
330
1B6
100
AcDbEntity
  8
cuerpo
 62
     7
420
 16777215
370
    25
100
AcDbVertex
100
AcDb2dVertex
 10
84.6513671875
 20
153.9228515625
 30
0.0
  0
SEQEND
  5
1B9
330
1B6
100
AcDbEntity
  8
cuerpo
370
    25
  0
ENDBLK
  5
1B5
330
1B2
100
AcDbEntity
  8
0
100
AcDbBlockEnd
  0
BLOCK
  5
1BC
330
1BA
100
AcDbEntity
  8
0
100
AcDbBlockBegin
  2
block 52
 70
     0
 71
     0
 10
0.0
 20
0.0
 30
0.0
  3
block 52
  1

  0
SPLINE
  5
1BE
330
1BA
100
AcDbEntity
  8
cuerpo
 62
     7
420
 16777215
370
    25
100
AcDbSpline
210
0.0
220
0.0
230
1.0
 70
     8
 71
     3
 72
     8
 73
     4
 74
     0
 42
0.0000000001
 43
0.0000000001
 40
0.0
 40
0.0
 40
0.0
 40
0.0
 40
1.0
 40
1.0
 40
1.0
 40
1.0
 10
84.6513671875
 20
153.9228515625
 30
0.0
 10
84.115234375
 20
153.9228515625
 30
0.0
 10
83.68017578125
 20
153.48828125
 30
0.0
 10
83.68017578125
 20
152.9521484375
 30
0.0
  0
ENDBLK
  5
1BD
330
1BA
100
AcDbEntity
  8
0
100
AcDbBlockEnd
  0
BLOCK
  5
1C1
330
1BF
100
AcDbEntity
  8
0
100
AcDbBlockBegin
  2
block 53
 70
     0
 71
     0
 10
0.0
 20
0.0
 30
0.0
  3
block 53
  1

  0
POLYLINE
  5
1C3
330
1BF
100
AcDbEntity
  8
cuerpo
 62
     7
420
 16777215
370
    25
100
AcDb2dPolyline
 66
     1
 10
0.0
 20
0.0
 30
0.0
  0
VERTEX
  5
1C4
330
1C3
100
AcDbEntity
  8
cuerpo
 62
     7
420
 16777215
370
    25
100
AcDbVertex
100
AcDb2dVertex
 10
83.68017578125
 20
152.9521484375
 30
0.0
  0
VERTEX
  5
1C5
330
1C3
100
AcDbEntity
  8
cuerpo
 62
     7
420
 16777215
370
    25
100
AcDbVertex
100
AcDb2dVertex
 10
83.68017578125
 20
152.6279296875
 30
0.0
  0
SEQEND
  5
1C6
330
1C3
100
AcDbEntity
  8
cuerpo
370
    25
  0
ENDBLK
  5
1C2
330
1BF
100
AcDbEntity
  8
0
100
AcDbBlockEnd
  0
BLOCK
  5
1C9
330
1C7
100
AcDbEntity
  8
0
100
AcDbBlockBegin
  2
block 54
 70
     0
 71
     0
 10
0.0
 20
0.0
 30
0.0
  3
block 54
  1

  0
POLYLINE
  5
1CB
330
1C7
100
AcDbEntity
  8
cuerpo
 62
     7
420
 16777215
370
    25
100
AcDb2dPolyline
 66
     1
 10
0.0
 20
0.0
 30
0.0
  0
VERTEX
  5
1CC
330
1CB
100
AcDbEntity
  8
cuerpo
 62
     7
420
 16777215
370
    25
100
AcDbVertex
100
AcDb2dVertex
 10
84.6513671875
 20
151.65625
 30
0.0
  0
VERTEX
  5
1CD
330
1CB
100
AcDbEntity
  8
cuerpo
 62
     7
420
 16777215
370
    25
100
AcDbVertex
100
AcDb2dVertex
 10
100.8408203125
 20
151.65625
 30
0.0
  0
SEQEND
  5
1CE
330
1CB
100
AcDbEntity
  8
cuerpo
370
    25
  0
ENDBLK
  5
1CA
330
1C7
100
AcDbEntity
  8
0
100
AcDbBlockEnd
  0
BLOCK
  5
1D1
330
1CF
100
AcDbEntity
  8
0
100
AcDbBlockBegin
  2
block 55
 70
     0
 71
     0
 10
0.0
 20
0.0
 30
0.0
  3
block 55
  1

  0
SPLINE
  5
1D3
330
1CF
100
AcDbEntity
  8
cuerpo
 62
     7
420
 16777215
370
    25
100
AcDbSpline
210
0.0
220
0.0
230
1.0
 70
     8
 71
     3
 72
     8
 73
     4
 74
     0
 42
0.0000000001
 43
0.0000000001
 40
0.0
 40
0.0
 40
0.0
 40
0.0
 40
1.0
 40
1.0
 40
1.0
 40
1.0
 10
83.68017578125
 20
152.6279296875
 30
0.0
 10
83.68017578125
 20
152.0908203125
 30
0.0
 10
84.115234375
 20
151.65625
 30
0.0
 10
84.6513671875
 20
151.65625
 30
0.0
  0
ENDBLK
  5
1D2
330
1CF
100
AcDbEntity
  8
0
100
AcDbBlockEnd
  0
BLOCK
  5
1D6
330
1D4
100
AcDbEntity
  8
0
100
AcDbBlockBegin
  2
block 56
 70
     0
 71
     0
 10
0.0
 20
0.0
 30
0.0
  3
block 56
  1

  0
POLYLINE
  5
1D8
330
1D4
100
AcDbEntity
  8
cuerpo
 62
     7
420
 16777215
370
    25
100
AcDb2dPolyline
 66
     1
 10
0.0
 20
0.0
 30
0.0
  0
VERTEX
  5
1D9
330
1D8
100
AcDbEntity
  8
cuerpo
 62
     7
420
 16777215
370
    25
100
AcDbVertex
100
AcDb2dVertex
 10
101.8125
 20
152.6279296875
 30
0.0
  0
VERTEX
  5
1DA
330
1D8
100
AcDbEntity
  8
cuerpo
 62
     7
420
 16777215
370
    25
100
AcDbVertex
100
AcDb2dVertex
 10
101.8125
 20
152.9521484375
 30
0.0
  0
SEQEND
  5
1DB
330
1D8
100
AcDbEntity
  8
cuerpo
370
    25
  0
ENDBLK
  5
1D7
330
1D4
100
AcDbEntity
  8
0
100
AcDbBlockEnd
  0
BLOCK
  5
1DE
330
1DC
100
AcDbEntity
  8
0
100
AcDbBlockBegin
  2
block 57
 70
     0
 71
     0
 10
0.0
 20
0.0
 30
0.0
  3
block 57
  1

  0
SPLINE
  5
1E0
330
1DC
100
AcDbEntity
  8
cuerpo
 62
     7
420
 16777215
370
    25
100
AcDbSpline
210
0.0
220
0.0
230
1.0
 70
     8
 71
     3
 72
     8
 73
     4
 74
     0
 42
0.0000000001
 43
0.0000000001
 40
0.0
 40
0.0
 40
0.0
 40
0.0
 40
1.0
 40
1.0
 40
1.0
 40
1.0
 10
100.8408203125
 20
151.65625
 30
0.0
 10
101.37744140625
 20
151.65625
 30
0.0
 10
101.8125
 20
152.0908203125
 30
0.0
 10
101.8125
 20
152.6279296875
 30
0.0
  0
ENDBLK
  5
1DF
330
1DC
100
AcDbEntity
  8
0
100
AcDbBlockEnd
  0
BLOCK
  5
1E3
330
1E1
100
AcDbEntity
  8
0
100
AcDbBlockBegin
  2
block 58
 70
     0
 71
     0
 10
0.0
 20
0.0
 30
0.0
  3
block 58
  1

  0
SPLINE
  5
1E5
330
1E1
100
AcDbEntity
  8
cuerpo
 62
     7
420
 16777215
370
    25
100
AcDbSpline
210
0.0
220
0.0
230
1.0
 70
     8
 71
     3
 72
     8
 73
     4
 74
     0
 42
0.0000000001
 43
0.0000000001
 40
0.0
 40
0.0
 40
0.0
 40
0.0
 40
1.0
 40
1.0
 40
1.0
 40
1.0
 10
101.8125
 20
152.9521484375
 30
0.0
 10
101.8125
 20
153.48828125
 30
0.0
 10
101.37744140625
 20
153.9228515625
 30
0.0
 10
100.8408203125
 20
153.9228515625
 30
0.0
  0
ENDBLK
  5
1E4
330
1E1
100
AcDbEntity
  8
0
100
AcDbBlockEnd
  0
BLOCK
  5
1E8
330
1E6
100
AcDbEntity
  8
0
100
AcDbBlockBegin
  2
block 59
 70
     0
 71
     0
 10
0.0
 20
0.0
 30
0.0
  3
block 59
  1

  0
POLYLINE
  5
1EA
330
1E6
100
AcDbEntity
  8
cuerpo
 62
     7
420
 16777215
370
    25
100
AcDb2dPolyline
 66
     1
 10
0.0
 20
0.0
 30
0.0
  0
VERTEX
  5
1EB
330
1EA
100
AcDbEntity
  8
cuerpo
 62
     7
420
 16777215
370
    25
100
AcDbVertex
100
AcDb2dVertex
 10
104.7265625
 20
131.2578125
 30
0.0
  0
VERTEX
  5
1EC
330
1EA
100
AcDbEntity
  8
cuerpo
 62
     7
420
 16777215
370
    25
100
AcDbVertex
100
AcDb2dVertex
 10
104.7265625
 20
146.7998046875
 30
0.0
  0
SEQEND
  5
1ED
330
1EA
100
AcDbEntity
  8
cuerpo
370
    25
  0
ENDBLK
  5
1E9
330
1E6
100
AcDbEntity
  8
0
100
AcDbBlockEnd
  0
BLOCK
  5
1F0
330
1EE
100
AcDbEntity
  8
0
100
AcDbBlockBegin
  2
block 60
 70
     0
 71
     0
 10
0.0
 20
0.0
 30
0.0
  3
block 60
  1

  0
POLYLINE
  5
1F2
330
1EE
100
AcDbEntity
  8
cuerpo
 62
     7
420
 16777215
370
    25
100
AcDb2dPolyline
 66
     1
 10
0.0
 20
0.0
 30
0.0
  0
VERTEX
  5
1F3
330
1F2
100
AcDbEntity
  8
cuerpo
 62
     7
420
 16777215
370
    25
100
AcDbVertex
100
AcDb2dVertex
 10
104.7265625
 20
130.93359375
 30
0.0
  0
VERTEX
  5
1F4
330
1F2
100
AcDbEntity
  8
cuerpo
 62
     7
420
 16777215
370
    25
100
AcDbVertex
100
AcDb2dVertex
 10
104.7265625
 20
147.1240234375
 30
0.0
  0
SEQEND
  5
1F5
330
1F2
100
AcDbEntity
  8
cuerpo
370
    25
  0
ENDBLK
  5
1F1
330
1EE
100
AcDbEntity
  8
0
100
AcDbBlockEnd
  0
BLOCK
  5
1F8
330
1F6
100
AcDbEntity
  8
0
100
AcDbBlockBegin
  2
block 61
 70
     0
 71
     0
 10
0.0
 20
0.0
 30
0.0
  3
block 61
  1

  0
SPLINE
  5
1FA
330
1F6
100
AcDbEntity
  8
cuerpo
 62
     7
420
 16777215
370
    25
100
AcDbSpline
210
0.0
220
0.0
230
1.0
 70
     8
 71
     3
 72
     8
 73
     4
 74
     0
 42
0.0000000001
 43
0.0000000001
 40
0.0
 40
0.0
 40
0.0
 40
0.0
 40
1.0
 40
1.0
 40
1.0
 40
1.0
 10
105.69775390625
 20
148.0947265625
 30
0.0
 10
105.1611328125
 20
148.0947265625
 30
0.0
 10
104.7265625
 20
147.66015625
 30
0.0
 10
104.7265625
 20
147.1240234375
 30
0.0
  0
ENDBLK
  5
1F9
330
1F6
100
AcDbEntity
  8
0
100
AcDbBlockEnd
  0
BLOCK
  5
1FD
330
1FB
100
AcDbEntity
  8
0
100
AcDbBlockBegin
  2
block 62
 70
     0
 71
     0
 10
0.0
 20
0.0
 30
0.0
  3
block 62
  1

  0
POLYLINE
  5
1FF
330
1FB
100
AcDbEntity
  8
cuerpo
 62
     7
420
 16777215
370
    25
100
AcDb2dPolyline
 66
     1
 10
0.0
 20
0.0
 30
0.0
  0
VERTEX
  5
200
330
1FF
100
AcDbEntity
  8
cuerpo
 62
     7
420
 16777215
370
    25
100
AcDbVertex
100
AcDb2dVertex
 10
105.69775390625
 20
148.0947265625
 30
0.0
  0
VERTEX
  5
201
330
1FF
100
AcDbEntity
  8
cuerpo
 62
     7
420
 16777215
370
    25
100
AcDbVertex
100
AcDb2dVertex
 10
106.021484375
 20
148.0947265625
 30
0.0
  0
SEQEND
  5
202
330
1FF
100
AcDbEntity
  8
cuerpo
370
    25
  0
ENDBLK
  5
1FE
330
1FB
100
AcDbEntity
  8
0
100
AcDbBlockEnd
  0
BLOCK
  5
205
330
203
100
AcDbEntity
  8
0
100
AcDbBlockBegin
  2
block 63
 70
     0
 71
     0
 10
0.0
 20
0.0
 30
0.0
  3
block 63
  1

  0
POLYLINE
  5
207
330
203
100
AcDbEntity
  8
cuerpo
 62
     7
420
 16777215
370
    25
100
AcDb2dPolyline
 66
     1
 10
0.0
 20
0.0
 30
0.0
  0
VERTEX
  5
208
330
207
100
AcDbEntity
  8
cuerpo
 62
     7
420
 16777215
370
    25
100
AcDbVertex
100
AcDb2dVertex
 10
106.9931640625
 20
147.1240234375
 30
0.0
  0
VERTEX
  5
209
330
207
100
AcDbEntity
  8
cuerpo
 62
     7
420
 16777215
370
    25
100
AcDbVertex
100
AcDb2dVertex
 10
106.9931640625
 20
130.93359375
 30
0.0
  0
SEQEND
  5
20A
330
207
100
AcDbEntity
  8
cuerpo
370
    25
  0
ENDBLK
  5
206
330
203
100
AcDbEntity
  8
0
100
AcDbBlockEnd
  0
BLOCK
  5
20D
330
20B
100
AcDbEntity
  8
0
100
AcDbBlockBegin
  2
block 64
 70
     0
 71
     0
 10
0.0
 20
0.0
 30
0.0
  3
block 64
  1

  0
SPLINE
  5
20F
330
20B
100
AcDbEntity
  8
cuerpo
 62
     7
420
 16777215
370
    25
100
AcDbSpline
210
0.0
220
0.0
230
1.0
 70
     8
 71
     3
 72
     8
 73
     4
 74
     0
 42
0.0000000001
 43
0.0000000001
 40
0.0
 40
0.0
 40
0.0
 40
0.0
 40
1.0
 40
1.0
 40
1.0
 40
1.0
 10
106.9931640625
 20
147.1240234375
 30
0.0
 10
106.9931640625
 20
147.66015625
 30
0.0
 10
106.55810546875
 20
148.0947265625
 30
0.0
 10
106.021484375
 20
148.0947265625
 30
0.0
  0
ENDBLK
  5
20E
330
20B
100
AcDbEntity
  8
0
100
AcDbBlockEnd
  0
BLOCK
  5
212
330
210
100
AcDbEntity
  8
0
100
AcDbBlockBegin
  2
block 65
 70
     0
 71
     0
 10
0.0
 20
0.0
 30
0.0
  3
block 65
  1

  0
POLYLINE
  5
214
330
210
100
AcDbEntity
  8
cuerpo
 62
     7
420
 16777215
370
    25
100
AcDb2dPolyline
 66
     1
 10
0.0
 20
0.0
 30
0.0
  0
VERTEX
  5
215
330
214
100
AcDbEntity
  8
cuerpo
 62
     7
420
 16777215
370
    25
100
AcDbVertex
100
AcDb2dVertex
 10
106.021484375
 20
129.962890625
 30
0.0
  0
VERTEX
  5
216
330
214
100
AcDbEntity
  8
cuerpo
 62
     7
420
 16777215
370
    25
100
AcDbVertex
100
AcDb2dVertex
 10
105.69775390625
 20
129.962890625
 30
0.0
  0
SEQEND
  5
217
330
214
100
AcDbEntity
  8
cuerpo
370
    25
  0
ENDBLK
  5
213
330
210
100
AcDbEntity
  8
0
100
AcDbBlockEnd
  0
BLOCK
  5
21A
330
218
100
AcDbEntity
  8
0
100
AcDbBlockBegin
  2
block 66
 70
     0
 71
     0
 10
0.0
 20
0.0
 30
0.0
  3
block 66
  1

  0
SPLINE
  5
21C
330
218
100
AcDbEntity
  8
cuerpo
 62
     7
420
 16777215
370
    25
100
AcDbSpline
210
0.0
220
0.0
230
1.0
 70
     8
 71
     3
 72
     8
 73
     4
 74
     0
 42
0.0000000001
 43
0.0000000001
 40
0.0
 40
0.0
 40
0.0
 40
0.0
 40
1.0
 40
1.0
 40
1.0
 40
1.0
 10
106.021484375
 20
129.962890625
 30
0.0
 10
106.55810546875
 20
129.962890625
 30
0.0
 10
106.9931640625
 20
130.3974609375
 30
0.0
 10
106.9931640625
 20
130.93359375
 30
0.0
  0
ENDBLK
  5
21B
330
218
100
AcDbEntity
  8
0
100
AcDbBlockEnd
  0
BLOCK
  5
21F
330
21D
100
AcDbEntity
  8
0
100
AcDbBlockBegin
  2
block 67
 70
     0
 71
     0
 10
0.0
 20
0.0
 30
0.0
  3
block 67
  1

  0
SPLINE
  5
221
330
21D
100
AcDbEntity
  8
cuerpo
 62
     7
420
 16777215
370
    25
100
AcDbSpline
210
0.0
220
0.0
230
1.0
 70
     8
 71
     3
 72
     8
 73
     4
 74
     0
 42
0.0000000001
 43
0.0000000001
 40
0.0
 40
0.0
 40
0.0
 40
0.0
 40
1.0
 40
1.0
 40
1.0
 40
1.0
 10
104.7265625
 20
130.93359375
 30
0.0
 10
104.7265625
 20
130.3974609375
 30
0.0
 10
105.1611328125
 20
129.962890625
 30
0.0
 10
105.69775390625
 20
129.962890625
 30
0.0
  0
ENDBLK
  5
220
330
21D
100
AcDbEntity
  8
0
100
AcDbBlockEnd
  0
BLOCK
  5
224
330
222
100
AcDbEntity
  8
0
100
AcDbBlockBegin
  2
block 68
 70
     0
 71
     0
 10
0.0
 20
0.0
 30
0.0
  3
block 68
  1

  0
SPLINE
  5
226
330
222
100
AcDbEntity
  8
cuerpo
 62
     7
420
 16777215
370
    25
100
AcDbSpline
210
0.0
220
0.0
230
1.0
 70
     8
 71
     3
 72
     8
 73
     4
 74
     0
 42
0.0000000001
 43
0.0000000001
 40
0.0
 40
0.0
 40
0.0
 40
0.0
 40
1.0
 40
1.0
 40
1.0
 40
1.0
 10
100.47998046875
 20
146.7998046875
 30
0.0
 10
96.740234375
 20
146.0986328125
 30
0.0
 10
93.587890625
 20
143.5966796875
 30
0.0
 10
92.0546875
 20
140.1142578125
 30
0.0
  0
ENDBLK
  5
225
330
222
100
AcDbEntity
  8
0
100
AcDbBlockEnd
  0
BLOCK
  5
229
330
227
100
AcDbEntity
  8
0
100
AcDbBlockBegin
  2
block 69
 70
     0
 71
     0
 10
0.0
 20
0.0
 30
0.0
  3
block 69
  1

  0
SPLINE
  5
22B
330
227
100
AcDbEntity
  8
cuerpo
 62
     7
420
 16777215
370
    25
100
AcDbSpline
210
0.0
220
0.0
230
1.0
 70
     8
 71
     3
 72
     8
 73
     4
 74
     0
 42
0.0000000001
 43
0.0000000001
 40
0.0
 40
0.0
 40
0.0
 40
0.0
 40
1.0
 40
1.0
 40
1.0
 40
1.0
 10
92.0546875
 20
137.943359375
 30
0.0
 10
93.587890625
 20
134.4609375
 30
0.0
 10
96.740234375
 20
131.9599609375
 30
0.0
 10
100.47998046875
 20
131.2578125
 30
0.0
  0
ENDBLK
  5
22A
330
227
100
AcDbEntity
  8
0
100
AcDbBlockEnd
  0
BLOCK
  5
22E
330
22C
100
AcDbEntity
  8
0
100
AcDbBlockBegin
  2
block 70
 70
     0
 71
     0
 10
0.0
 20
0.0
 30
0.0
  3
block 70
  1

  0
POLYLINE
  5
230
330
22C
100
AcDbEntity
  8
cuerpo
 62
     7
420
 16777215
370
    25
100
AcDb2dPolyline
 66
     1
 10
0.0
 20
0.0
 30
0.0
  0
VERTEX
  5
231
330
230
100
AcDbEntity
  8
cuerpo
 62
     7
420
 16777215
370
    25
100
AcDbVertex
100
AcDb2dVertex
 10
85.94677734375
 20
189.5400390625
 30
0.0
  0
VERTEX
  5
232
330
230
100
AcDbEntity
  8
cuerpo
 62
     7
420
 16777215
370
    25
100
AcDbVertex
100
AcDb2dVertex
 10
85.94677734375
 20
153.9228515625
 30
0.0
  0
SEQEND
  5
233
330
230
100
AcDbEntity
  8
cuerpo
370
    25
  0
ENDBLK
  5
22F
330
22C
100
AcDbEntity
  8
0
100
AcDbBlockEnd
  0
BLOCK
  5
236
330
234
100
AcDbEntity
  8
0
100
AcDbBlockBegin
  2
block 71
 70
     0
 71
     0
 10
0.0
 20
0.0
 30
0.0
  3
block 71
  1

  0
POLYLINE
  5
238
330
234
100
AcDbEntity
  8
cuerpo
 62
     7
420
 16777215
370
    25
100
AcDb2dPolyline
 66
     1
 10
0.0
 20
0.0
 30
0.0
  0
VERTEX
  5
239
330
238
100
AcDbEntity
  8
cuerpo
 62
     7
420
 16777215
370
    25
100
AcDbVertex
100
AcDb2dVertex
 10
99.5458984375
 20
189.5400390625
 30
0.0
  0
VERTEX
  5
23A
330
238
100
AcDbEntity
  8
cuerpo
 62
     7
420
 16777215
370
    25
100
AcDbVertex
100
AcDb2dVertex
 10
99.5458984375
 20
153.9228515625
 30
0.0
  0
SEQEND
  5
23B
330
238
100
AcDbEntity
  8
cuerpo
370
    25
  0
ENDBLK
  5
237
330
234
100
AcDbEntity
  8
0
100
AcDbBlockEnd
  0
BLOCK
  5
23E
330
23C
100
AcDbEntity
  8
0
100
AcDbBlockBegin
  2
block 72
 70
     0
 71
     0
 10
0.0
 20
0.0
 30
0.0
  3
block 72
  1

  0
POLYLINE
  5
240
330
23C
100
AcDbEntity
  8
cuerpo
 62
     7
420
 16777215
370
    25
100
AcDb2dPolyline
 66
     1
 10
0.0
 20
0.0
 30
0.0
  0
VERTEX
  5
241
330
240
100
AcDbEntity
  8
cuerpo
 62
     7
420
 16777215
370
    25
100
AcDbVertex
100
AcDb2dVertex
 10
114.884765625
 20
198.6064453125
 30
0.0
  0
VERTEX
  5
242
330
240
100
AcDbEntity
  8
cuerpo
 62
     7
420
 16777215
370
    25
100
AcDbVertex
100
AcDb2dVertex
 10
101.32666015625
 20
198.6064453125
 30
0.0
  0
SEQEND
  5
243
330
240
100
AcDbEntity
  8
cuerpo
370
    25
  0
ENDBLK
  5
23F
330
23C
100
AcDbEntity
  8
0
100
AcDbBlockEnd
  0
BLOCK
  5
246
330
244
100
AcDbEntity
  8
0
100
AcDbBlockBegin
  2
block 73
 70
     0
 71
     0
 10
0.0
 20
0.0
 30
0.0
  3
block 73
  1

  0
SPLINE
  5
248
330
244
100
AcDbEntity
  8
cuerpo
 62
     7
420
 16777215
370
    25
100
AcDbSpline
210
0.0
220
0.0
230
1.0
 70
     8
 71
     3
 72
     8
 73
     4
 74
     0
 42
0.0000000001
 43
0.0000000001
 40
0.0
 40
0.0
 40
0.0
 40
0.0
 40
1.0
 40
1.0
 40
1.0
 40
1.0
 10
90.5771484375
 20
216.0908203125
 30
0.0
 10
87.00048828125
 20
216.0908203125
 30
0.0
 10
84.10107421875
 20
213.1904296875
 30
0.0
 10
84.10107421875
 20
209.6142578125
 30
0.0
  0
ENDBLK
  5
247
330
244
100
AcDbEntity
  8
0
100
AcDbBlockEnd
  0
BLOCK
  5
24B
330
249
100
AcDbEntity
  8
0
100
AcDbBlockBegin
  2
block 74
 70
     0
 71
     0
 10
0.0
 20
0.0
 30
0.0
  3
block 74
  1

  0
POLYLINE
  5
24D
330
249
100
AcDbEntity
  8
cuerpo
 62
     7
420
 16777215
370
    25
100
AcDb2dPolyline
 66
     1
 10
0.0
 20
0.0
 30
0.0
  0
VERTEX
  5
24E
330
24D
100
AcDbEntity
  8
cuerpo
 62
     7
420
 16777215
370
    25
100
AcDbVertex
100
AcDb2dVertex
 10
84.32763671875
 20
189.5400390625
 30
0.0
  0
VERTEX
  5
24F
330
24D
100
AcDbEntity
  8
cuerpo
 62
     7
420
 16777215
370
    25
100
AcDbVertex
100
AcDb2dVertex
 10
101.16455078125
 20
189.5400390625
 30
0.0
  0
SEQEND
  5
250
330
24D
100
AcDbEntity
  8
cuerpo
370
    25
  0
ENDBLK
  5
24C
330
249
100
AcDbEntity
  8
0
100
AcDbBlockEnd
  0
BLOCK
  5
253
330
251
100
AcDbEntity
  8
0
100
AcDbBlockBegin
  2
block 75
 70
     0
 71
     0
 10
0.0
 20
0.0
 30
0.0
  3
block 75
  1

  0
SPLINE
  5
255
330
251
100
AcDbEntity
  8
cuerpo
 62
     7
420
 16777215
370
    25
100
AcDbSpline
210
0.0
220
0.0
230
1.0
 70
     8
 71
     3
 72
     8
 73
     4
 74
     0
 42
0.0000000001
 43
0.0000000001
 40
0.0
 40
0.0
 40
0.0
 40
0.0
 40
1.0
 40
1.0
 40
1.0
 40
1.0
 10
83.03271484375
 20
190.8349609375
 30
0.0
 10
83.03271484375
 20
190.1201171875
 30
0.0
 10
83.6123046875
 20
189.5400390625
 30
0.0
 10
84.32763671875
 20
189.5400390625
 30
0.0
  0
ENDBLK
  5
254
330
251
100
AcDbEntity
  8
0
100
AcDbBlockEnd
  0
BLOCK
  5
258
330
256
100
AcDbEntity
  8
0
100
AcDbBlockBegin
  2
block 76
 70
     0
 71
     0
 10
0.0
 20
0.0
 30
0.0
  3
block 76
  1

  0
POLYLINE
  5
25A
330
256
100
AcDbEntity
  8
cuerpo
 62
     7
420
 16777215
370
    25
100
AcDb2dPolyline
 66
     1
 10
0.0
 20
0.0
 30
0.0
  0
VERTEX
  5
25B
330
25A
100
AcDbEntity
  8
cuerpo
 62
     7
420
 16777215
370
    25
100
AcDbVertex
100
AcDb2dVertex
 10
84.32763671875
 20
192.1298828125
 30
0.0
  0
VERTEX
  5
25C
330
25A
100
AcDbEntity
  8
cuerpo
 62
     7
420
 16777215
370
    25
100
AcDbVertex
100
AcDb2dVertex
 10
101.16455078125
 20
192.1298828125
 30
0.0
  0
SEQEND
  5
25D
330
25A
100
AcDbEntity
  8
cuerpo
370
    25
  0
ENDBLK
  5
259
330
256
100
AcDbEntity
  8
0
100
AcDbBlockEnd
  0
BLOCK
  5
260
330
25E
100
AcDbEntity
  8
0
100
AcDbBlockBegin
  2
block 77
 70
     0
 71
     0
 10
0.0
 20
0.0
 30
0.0
  3
block 77
  1

  0
SPLINE
  5
262
330
25E
100
AcDbEntity
  8
cuerpo
 62
     7
420
 16777215
370
    25
100
AcDbSpline
210
0.0
220
0.0
230
1.0
 70
     8
 71
     3
 72
     8
 73
     4
 74
     0
 42
0.0000000001
 43
0.0000000001
 40
0.0
 40
0.0
 40
0.0
 40
0.0
 40
1.0
 40
1.0
 40
1.0
 40
1.0
 10
84.32763671875
 20
192.1298828125
 30
0.0
 10
83.6123046875
 20
192.1298828125
 30
0.0
 10
83.03271484375
 20
191.5498046875
 30
0.0
 10
83.03271484375
 20
190.8349609375
 30
0.0
  0
ENDBLK
  5
261
330
25E
100
AcDbEntity
  8
0
100
AcDbBlockEnd
  0
BLOCK
  5
265
330
263
100
AcDbEntity
  8
0
100
AcDbBlockBegin
  2
block 78
 70
     0
 71
     0
 10
0.0
 20
0.0
 30
0.0
  3
block 78
  1

  0
POLYLINE
  5
267
330
263
100
AcDbEntity
  8
cuerpo
 62
     7
420
 16777215
370
    25
100
AcDb2dPolyline
 66
     1
 10
0.0
 20
0.0
 30
0.0
  0
VERTEX
  5
268
330
267
100
AcDbEntity
  8
cuerpo
 62
     7
420
 16777215
370
    25
100
AcDbVertex
100
AcDb2dVertex
 10
90.5771484375
 20
216.0908203125
 30
0.0
  0
VERTEX
  5
269
330
267
100
AcDbEntity
  8
cuerpo
 62
     7
420
 16777215
370
    25
100
AcDbVertex
100
AcDb2dVertex
 10
114.884765625
 20
216.0908203125
 30
0.0
  0
SEQEND
  5
26A
330
267
100
AcDbEntity
  8
cuerpo
370
    25
  0
ENDBLK
  5
266
330
263
100
AcDbEntity
  8
0
100
AcDbBlockEnd
  0
BLOCK
  5
26D
330
26B
100
AcDbEntity
  8
0
100
AcDbBlockBegin
  2
block 79
 70
     0
 71
     0
 10
0.0
 20
0.0
 30
0.0
  3
block 79
  1

  0
POLYLINE
  5
26F
330
26B
100
AcDbEntity
  8
cuerpo
 62
     7
420
 16777215
370
    25
100
AcDb2dPolyline
 66
     1
 10
0.0
 20
0.0
 30
0.0
  0
VERTEX
  5
270
330
26F
100
AcDbEntity
  8
cuerpo
 62
     7
420
 16777215
370
    25
100
AcDbVertex
100
AcDb2dVertex
 10
114.884765625
 20
189.86328125
 30
0.0
  0
VERTEX
  5
271
330
26F
100
AcDbEntity
  8
cuerpo
 62
     7
420
 16777215
370
    25
100
AcDbVertex
100
AcDb2dVertex
 10
114.884765625
 20
224.8330078125
 30
0.0
  0
SEQEND
  5
272
330
26F
100
AcDbEntity
  8
cuerpo
370
    25
  0
ENDBLK
  5
26E
330
26B
100
AcDbEntity
  8
0
100
AcDbBlockEnd
  0
BLOCK
  5
275
330
273
100
AcDbEntity
  8
0
100
AcDbBlockBegin
  2
block 80
 70
     0
 71
     0
 10
0.0
 20
0.0
 30
0.0
  3
block 80
  1

  0
POLYLINE
  5
277
330
273
100
AcDbEntity
  8
cuerpo
 62
     7
420
 16777215
370
    25
100
AcDb2dPolyline
 66
     1
 10
0.0
 20
0.0
 30
0.0
  0
VERTEX
  5
278
330
277
100
AcDbEntity
  8
cuerpo
 62
     7
420
 16777215
370
    25
100
AcDbVertex
100
AcDb2dVertex
 10
84.10107421875
 20
195.8369140625
 30
0.0
  0
VERTEX
  5
279
330
277
100
AcDbEntity
  8
cuerpo
 62
     7
420
 16777215
370
    25
100
AcDbVertex
100
AcDb2dVertex
 10
84.10107421875
 20
209.6142578125
 30
0.0
  0
SEQEND
  5
27A
330
277
100
AcDbEntity
  8
cuerpo
370
    25
  0
ENDBLK
  5
276
330
273
100
AcDbEntity
  8
0
100
AcDbBlockEnd
  0
BLOCK
  5
27D
330
27B
100
AcDbEntity
  8
0
100
AcDbBlockBegin
  2
block 81
 70
     0
 71
     0
 10
0.0
 20
0.0
 30
0.0
  3
block 81
  1

  0
POLYLINE
  5
27F
330
27B
100
AcDbEntity
  8
cuerpo
 62
     7
420
 16777215
370
    25
100
AcDb2dPolyline
 66
     1
 10
0.0
 20
0.0
 30
0.0
  0
VERTEX
  5
280
330
27F
100
AcDbEntity
  8
cuerpo
 62
     7
420
 16777215
370
    25
100
AcDbVertex
100
AcDb2dVertex
 10
101.32666015625
 20
195.8369140625
 30
0.0
  0
VERTEX
  5
281
330
27F
100
AcDbEntity
  8
cuerpo
 62
     7
420
 16777215
370
    25
100
AcDbVertex
100
AcDb2dVertex
 10
101.32666015625
 20
198.6064453125
 30
0.0
  0
SEQEND
  5
282
330
27F
100
AcDbEntity
  8
cuerpo
370
    25
  0
ENDBLK
  5
27E
330
27B
100
AcDbEntity
  8
0
100
AcDbBlockEnd
  0
BLOCK
  5
285
330
283
100
AcDbEntity
  8
0
100
AcDbBlockBegin
  2
block 82
 70
     0
 71
     0
 10
0.0
 20
0.0
 30
0.0
  3
block 82
  1

  0
SPLINE
  5
287
330
283
100
AcDbEntity
  8
cuerpo
 62
     7
420
 16777215
370
    25
100
AcDbSpline
210
0.0
220
0.0
230
1.0
 70
     8
 71
     3
 72
     8
 73
     4
 74
     0
 42
0.0000000001
 43
0.0000000001
 40
0.0
 40
0.0
 40
0.0
 40
0.0
 40
1.0
 40
1.0
 40
1.0
 40
1.0
 10
90.5771484375
 20
209.6142578125
 30
0.0
 10
93.50244140625
 20
205.35546875
 30
0.0
 10
97.138671875
 20
201.6318359375
 30
0.0
 10
101.32666015625
 20
198.6064453125
 30
0.0
  0
ENDBLK
  5
286
330
283
100
AcDbEntity
  8
0
100
AcDbBlockEnd
  0
BLOCK
  5
28A
330
288
100
AcDbEntity
  8
0
100
AcDbBlockBegin
  2
block 83
 70
     0
 71
     0
 10
0.0
 20
0.0
 30
0.0
  3
block 83
  1

  0
POLYLINE
  5
28C
330
288
100
AcDbEntity
  8
cuerpo
 62
     7
420
 16777215
370
    25
100
AcDb2dPolyline
 66
     1
 10
0.0
 20
0.0
 30
0.0
  0
VERTEX
  5
28D
330
28C
100
AcDbEntity
  8
cuerpo
 62
     7
420
 16777215
370
    25
100
AcDbVertex
100
AcDb2dVertex
 10
101.423828125
 20
195.8251953125
 30
0.0
  0
VERTEX
  5
28E
330
28C
100
AcDbEntity
  8
cuerpo
 62
     7
420
 16777215
370
    25
100
AcDbVertex
100
AcDb2dVertex
 10
101.423828125
 20
192.1298828125
 30
0.0
  0
SEQEND
  5
28F
330
28C
100
AcDbEntity
  8
cuerpo
370
    25
  0
ENDBLK
  5
28B
330
288
100
AcDbEntity
  8
0
100
AcDbBlockEnd
  0
BLOCK
  5
292
330
290
100
AcDbEntity
  8
0
100
AcDbBlockBegin
  2
block 84
 70
     0
 71
     0
 10
0.0
 20
0.0
 30
0.0
  3
block 84
  1

  0
POLYLINE
  5
294
330
290
100
AcDbEntity
  8
cuerpo
 62
     7
420
 16777215
370
    25
100
AcDb2dPolyline
 66
     1
 10
0.0
 20
0.0
 30
0.0
  0
VERTEX
  5
295
330
294
100
AcDbEntity
  8
cuerpo
 62
     7
420
 16777215
370
    25
100
AcDbVertex
100
AcDb2dVertex
 10
100.77587890625
 20
195.9013671875
 30
0.0
  0
VERTEX
  5
296
330
294
100
AcDbEntity
  8
cuerpo
 62
     7
420
 16777215
370
    25
100
AcDbVertex
100
AcDb2dVertex
 10
100.77587890625
 20
192.1298828125
 30
0.0
  0
SEQEND
  5
297
330
294
100
AcDbEntity
  8
cuerpo
370
    25
  0
ENDBLK
  5
293
330
290
100
AcDbEntity
  8
0
100
AcDbBlockEnd
  0
BLOCK
  5
29A
330
298
100
AcDbEntity
  8
0
100
AcDbBlockBegin
  2
block 85
 70
     0
 71
     0
 10
0.0
 20
0.0
 30
0.0
  3
block 85
  1

  0
POLYLINE
  5
29C
330
298
100
AcDbEntity
  8
cuerpo
 62
     7
420
 16777215
370
    25
100
AcDb2dPolyline
 66
     1
 10
0.0
 20
0.0
 30
0.0
  0
VERTEX
  5
29D
330
29C
100
AcDbEntity
  8
cuerpo
 62
     7
420
 16777215
370
    25
100
AcDbVertex
100
AcDb2dVertex
 10
83.03271484375
 20
190.8349609375
 30
0.0
  0
VERTEX
  5
29E
330
29C
100
AcDbEntity
  8
cuerpo
 62
     7
420
 16777215
370
    25
100
AcDbVertex
100
AcDb2dVertex
 10
83.03271484375
 20
190.8349609375
 30
0.0
  0
SEQEND
  5
29F
330
29C
100
AcDbEntity
  8
cuerpo
370
    25
  0
ENDBLK
  5
29B
330
298
100
AcDbEntity
  8
0
100
AcDbBlockEnd
  0
BLOCK
  5
2A2
330
2A0
100
AcDbEntity
  8
0
100
AcDbBlockBegin
  2
block 86
 70
     0
 71
     0
 10
0.0
 20
0.0
 30
0.0
  3
block 86
  1

  0
POLYLINE
  5
2A4
330
2A0
100
AcDbEntity
  8
cuerpo
 62
     7
420
 16777215
370
    25
100
AcDb2dPolyline
 66
     1
 10
0.0
 20
0.0
 30
0.0
  0
VERTEX
  5
2A5
330
2A4
100
AcDbEntity
  8
cuerpo
 62
     7
420
 16777215
370
    25
100
AcDbVertex
100
AcDb2dVertex
 10
102.4599609375
 20
190.8349609375
 30
0.0
  0
VERTEX
  5
2A6
330
2A4
100
AcDbEntity
  8
cuerpo
 62
     7
420
 16777215
370
    25
100
AcDbVertex
100
AcDb2dVertex
 10
102.4599609375
 20
190.8349609375
 30
0.0
  0
SEQEND
  5
2A7
330
2A4
100
AcDbEntity
  8
cuerpo
370
    25
  0
ENDBLK
  5
2A3
330
2A0
100
AcDbEntity
  8
0
100
AcDbBlockEnd
  0
BLOCK
  5
2AA
330
2A8
100
AcDbEntity
  8
0
100
AcDbBlockBegin
  2
block 87
 70
     0
 71
     0
 10
0.0
 20
0.0
 30
0.0
  3
block 87
  1

  0
SPLINE
  5
2AC
330
2A8
100
AcDbEntity
  8
cuerpo
 62
     7
420
 16777215
370
    25
100
AcDbSpline
210
0.0
220
0.0
230
1.0
 70
     8
 71
     3
 72
     8
 73
     4
 74
     0
 42
0.0000000001
 43
0.0000000001
 40
0.0
 40
0.0
 40
0.0
 40
0.0
 40
1.0
 40
1.0
 40
1.0
 40
1.0
 10
102.4599609375
 20
190.8349609375
 30
0.0
 10
102.4599609375
 20
191.5498046875
 30
0.0
 10
101.8798828125
 20
192.1298828125
 30
0.0
 10
101.16455078125
 20
192.1298828125
 30
0.0
  0
ENDBLK
  5
2AB
330
2A8
100
AcDbEntity
  8
0
100
AcDbBlockEnd
  0
BLOCK
  5
2AF
330
2AD
100
AcDbEntity
  8
0
100
AcDbBlockBegin
  2
block 88
 70
     0
 71
     0
 10
0.0
 20
0.0
 30
0.0
  3
block 88
  1

  0
SPLINE
  5
2B1
330
2AD
100
AcDbEntity
  8
cuerpo
 62
     7
420
 16777215
370
    25
100
AcDbSpline
210
0.0
220
0.0
230
1.0
 70
     8
 71
     3
 72
     8
 73
     4
 74
     0
 42
0.0000000001
 43
0.0000000001
 40
0.0
 40
0.0
 40
0.0
 40
0.0
 40
1.0
 40
1.0
 40
1.0
 40
1.0
 10
101.16455078125
 20
189.5400390625
 30
0.0
 10
101.8798828125
 20
189.5400390625
 30
0.0
 10
102.4599609375
 20
190.1201171875
 30
0.0
 10
102.4599609375
 20
190.8349609375
 30
0.0
  0
ENDBLK
  5
2B0
330
2AD
100
AcDbEntity
  8
0
100
AcDbBlockEnd
  0
BLOCK
  5
2B4
330
2B2
100
AcDbEntity
  8
0
100
AcDbBlockBegin
  2
block 89
 70
     0
 71
     0
 10
0.0
 20
0.0
 30
0.0
  3
block 89
  1

  0
POLYLINE
  5
2B6
330
2B2
100
AcDbEntity
  8
cuerpo
 62
     7
420
 16777215
370
    25
100
AcDb2dPolyline
 66
     1
 10
0.0
 20
0.0
 30
0.0
  0
VERTEX
  5
2B7
330
2B6
100
AcDbEntity
  8
cuerpo
 62
     7
420
 16777215
370
    25
100
AcDbVertex
100
AcDb2dVertex
 10
92.0341796875
 20
195.8251953125
 30
0.0
  0
VERTEX
  5
2B8
330
2B6
100
AcDbEntity
  8
cuerpo
 62
     7
420
 16777215
370
    25
100
AcDbVertex
100
AcDb2dVertex
 10
92.0341796875
 20
192.1298828125
 30
0.0
  0
SEQEND
  5
2B9
330
2B6
100
AcDbEntity
  8
cuerpo
370
    25
  0
ENDBLK
  5
2B5
330
2B2
100
AcDbEntity
  8
0
100
AcDbBlockEnd
  0
BLOCK
  5
2BC
330
2BA
100
AcDbEntity
  8
0
100
AcDbBlockBegin
  2
block 90
 70
     0
 71
     0
 10
0.0
 20
0.0
 30
0.0
  3
block 90
  1

  0
POLYLINE
  5
2BE
330
2BA
100
AcDbEntity
  8
cuerpo
 62
     7
420
 16777215
370
    25
100
AcDb2dPolyline
 66
     1
 10
0.0
 20
0.0
 30
0.0
  0
VERTEX
  5
2BF
330
2BE
100
AcDbEntity
  8
cuerpo
 62
     7
420
 16777215
370
    25
100
AcDbVertex
100
AcDb2dVertex
 10
93.39404296875
 20
195.8251953125
 30
0.0
  0
VERTEX
  5
2C0
330
2BE
100
AcDbEntity
  8
cuerpo
 62
     7
420
 16777215
370
    25
100
AcDbVertex
100
AcDb2dVertex
 10
93.39404296875
 20
192.1298828125
 30
0.0
  0
SEQEND
  5
2C1
330
2BE
100
AcDbEntity
  8
cuerpo
370
    25
  0
ENDBLK
  5
2BD
330
2BA
100
AcDbEntity
  8
0
100
AcDbBlockEnd
  0
BLOCK
  5
2C4
330
2C2
100
AcDbEntity
  8
0
100
AcDbBlockBegin
  2
block 91
 70
     0
 71
     0
 10
0.0
 20
0.0
 30
0.0
  3
block 91
  1

  0
POLYLINE
  5
2C6
330
2C2
100
AcDbEntity
  8
cuerpo
 62
     7
420
 16777215
370
    25
100
AcDb2dPolyline
 66
     1
 10
0.0
 20
0.0
 30
0.0
  0
VERTEX
  5
2C7
330
2C6
100
AcDbEntity
  8
cuerpo
 62
     7
420
 16777215
370
    25
100
AcDbVertex
100
AcDb2dVertex
 10
84.00390625
 20
195.8251953125
 30
0.0
  0
VERTEX
  5
2C8
330
2C6
100
AcDbEntity
  8
cuerpo
 62
     7
420
 16777215
370
    25
100
AcDbVertex
100
AcDb2dVertex
 10
84.00390625
 20
192.1298828125
 30
0.0
  0
SEQEND
  5
2C9
330
2C6
100
AcDbEntity
  8
cuerpo
370
    25
  0
ENDBLK
  5
2C5
330
2C2
100
AcDbEntity
  8
0
100
AcDbBlockEnd
  0
BLOCK
  5
2CC
330
2CA
100
AcDbEntity
  8
0
100
AcDbBlockBegin
  2
block 92
 70
     0
 71
     0
 10
0.0
 20
0.0
 30
0.0
  3
block 92
  1

  0
POLYLINE
  5
2CE
330
2CA
100
AcDbEntity
  8
cuerpo
 62
     7
420
 16777215
370
    25
100
AcDb2dPolyline
 66
     1
 10
0.0
 20
0.0
 30
0.0
  0
VERTEX
  5
2CF
330
2CE
100
AcDbEntity
  8
cuerpo
 62
     7
420
 16777215
370
    25
100
AcDbVertex
100
AcDb2dVertex
 10
84.6513671875
 20
195.9013671875
 30
0.0
  0
VERTEX
  5
2D0
330
2CE
100
AcDbEntity
  8
cuerpo
 62
     7
420
 16777215
370
    25
100
AcDbVertex
100
AcDb2dVertex
 10
84.6513671875
 20
192.1298828125
 30
0.0
  0
SEQEND
  5
2D1
330
2CE
100
AcDbEntity
  8
cuerpo
370
    25
  0
ENDBLK
  5
2CD
330
2CA
100
AcDbEntity
  8
0
100
AcDbBlockEnd
  0
BLOCK
  5
2D4
330
2D2
100
AcDbEntity
  8
0
100
AcDbBlockBegin
  2
block 93
 70
     0
 71
     0
 10
0.0
 20
0.0
 30
0.0
  3
block 93
  1

  0
SPLINE
  5
2D6
330
2D2
100
AcDbEntity
  8
cuerpo
 62
     7
420
 16777215
370
    25
100
AcDbSpline
210
0.0
220
0.0
230
1.0
 70
     8
 71
     3
 72
     8
 73
     4
 74
     0
 42
0.0000000001
 43
0.0000000001
 40
0.0
 40
0.0
 40
0.0
 40
0.0
 40
1.0
 40
1.0
 40
1.0
 40
1.0
 10
101.423828125
 20
195.8251953125
 30
0.0
 10
98.75830078125
 20
196.169921875
 30
0.0
 10
96.0595703125
 20
196.169921875
 30
0.0
 10
93.39404296875
 20
195.8251953125
 30
0.0
  0
ENDBLK
  5
2D5
330
2D2
100
AcDbEntity
  8
0
100
AcDbBlockEnd
  0
BLOCK
  5
2D9
330
2D7
100
AcDbEntity
  8
0
100
AcDbBlockBegin
  2
block 94
 70
     0
 71
     0
 10
0.0
 20
0.0
 30
0.0
  3
block 94
  1

  0
SPLINE
  5
2DB
330
2D7
100
AcDbEntity
  8
cuerpo
 62
     7
420
 16777215
370
    25
100
AcDbSpline
210
0.0
220
0.0
230
1.0
 70
     8
 71
     3
 72
     8
 73
     4
 74
     0
 42
0.0000000001
 43
0.0000000001
 40
0.0
 40
0.0
 40
0.0
 40
0.0
 40
1.0
 40
1.0
 40
1.0
 40
1.0
 10
92.0341796875
 20
195.8251953125
 30
0.0
 10
89.36865234375
 20
196.169921875
 30
0.0
 10
86.66943359375
 20
196.169921875
 30
0.0
 10
84.00390625
 20
195.8251953125
 30
0.0
  0
ENDBLK
  5
2DA
330
2D7
100
AcDbEntity
  8
0
100
AcDbBlockEnd
  0
BLOCK
  5
2DE
330
2DC
100
AcDbEntity
  8
0
100
AcDbBlockBegin
  2
block 95
 70
     0
 71
     0
 10
0.0
 20
0.0
 30
0.0
  3
block 95
  1

  0
POLYLINE
  5
2E0
330
2DC
100
AcDbEntity
  8
cuerpo
 62
     7
420
 16777215
370
    25
100
AcDb2dPolyline
 66
     1
 10
0.0
 20
0.0
 30
0.0
  0
VERTEX
  5
2E1
330
2E0
100
AcDbEntity
  8
cuerpo
 62
     7
420
 16777215
370
    25
100
AcDbVertex
100
AcDb2dVertex
 10
93.39404296875
 20
195.8251953125
 30
0.0
  0
VERTEX
  5
2E2
330
2E0
100
AcDbEntity
  8
cuerpo
 62
     7
420
 16777215
370
    25
100
AcDbVertex
100
AcDb2dVertex
 10
92.0341796875
 20
195.8251953125
 30
0.0
  0
SEQEND
  5
2E3
330
2E0
100
AcDbEntity
  8
cuerpo
370
    25
  0
ENDBLK
  5
2DF
330
2DC
100
AcDbEntity
  8
0
100
AcDbBlockEnd
  0
BLOCK
  5
2E6
330
2E4
100
AcDbEntity
  8
0
100
AcDbBlockBegin
  2
block 96
 70
     0
 71
     0
 10
0.0
 20
0.0
 30
0.0
  3
block 96
  1

  0
POLYLINE
  5
2E8
330
2E4
100
AcDbEntity
  8
cuerpo
 62
     7
420
 16777215
370
    25
100
AcDb2dPolyline
 66
     1
 10
0.0
 20
0.0
 30
0.0
  0
VERTEX
  5
2E9
330
2E8
100
AcDbEntity
  8
cuerpo
 62
     7
420
 16777215
370
    25
100
AcDbVertex
100
AcDb2dVertex
 10
106.9931640625
 20
145.001953125
 30
0.0
  0
VERTEX
  5
2EA
330
2E8
100
AcDbEntity
  8
cuerpo
 62
     7
420
 16777215
370
    25
100
AcDbVertex
100
AcDb2dVertex
 10
114.884765625
 20
145.001953125
 30
0.0
  0
SEQEND
  5
2EB
330
2E8
100
AcDbEntity
  8
cuerpo
370
    25
  0
ENDBLK
  5
2E7
330
2E4
100
AcDbEntity
  8
0
100
AcDbBlockEnd
  0
BLOCK
  5
2EE
330
2EC
100
AcDbEntity
  8
0
100
AcDbBlockBegin
  2
block 97
 70
     0
 71
     0
 10
0.0
 20
0.0
 30
0.0
  3
block 97
  1

  0
POLYLINE
  5
2F0
330
2EC
100
AcDbEntity
  8
cuerpo
 62
     7
420
 16777215
370
    25
100
AcDb2dPolyline
 66
     1
 10
0.0
 20
0.0
 30
0.0
  0
VERTEX
  5
2F1
330
2F0
100
AcDbEntity
  8
cuerpo
 62
     7
420
 16777215
370
    25
100
AcDbVertex
100
AcDb2dVertex
 10
106.9931640625
 20
133.0556640625
 30
0.0
  0
VERTEX
  5
2F2
330
2F0
100
AcDbEntity
  8
cuerpo
 62
     7
420
 16777215
370
    25
100
AcDbVertex
100
AcDb2dVertex
 10
114.884765625
 20
133.0556640625
 30
0.0
  0
SEQEND
  5
2F3
330
2F0
100
AcDbEntity
  8
cuerpo
370
    25
  0
ENDBLK
  5
2EF
330
2EC
100
AcDbEntity
  8
0
100
AcDbBlockEnd
  0
BLOCK
  5
2F6
330
2F4
100
AcDbEntity
  8
0
100
AcDbBlockBegin
  2
block 98
 70
     0
 71
     0
 10
0.0
 20
0.0
 30
0.0
  3
block 98
  1

  0
POLYLINE
  5
2F8
330
2F4
100
AcDbEntity
  8
cuerpo
 62
     7
420
 16777215
370
    25
100
AcDb2dPolyline
 66
     1
 10
0.0
 20
0.0
 30
0.0
  0
VERTEX
  5
2F9
330
2F8
100
AcDbEntity
  8
cuerpo
 62
     7
420
 16777215
370
    25
100
AcDbVertex
100
AcDb2dVertex
 10
85.94677734375
 20
88.517578125
 30
0.0
  0
VERTEX
  5
2FA
330
2F8
100
AcDbEntity
  8
cuerpo
 62
     7
420
 16777215
370
    25
100
AcDbVertex
100
AcDb2dVertex
 10
85.94677734375
 20
124.134765625
 30
0.0
  0
SEQEND
  5
2FB
330
2F8
100
AcDbEntity
  8
cuerpo
370
    25
  0
ENDBLK
  5
2F7
330
2F4
100
AcDbEntity
  8
0
100
AcDbBlockEnd
  0
BLOCK
  5
2FE
330
2FC
100
AcDbEntity
  8
0
100
AcDbBlockBegin
  2
block 99
 70
     0
 71
     0
 10
0.0
 20
0.0
 30
0.0
  3
block 99
  1

  0
POLYLINE
  5
300
330
2FC
100
AcDbEntity
  8
cuerpo
 62
     7
420
 16777215
370
    25
100
AcDb2dPolyline
 66
     1
 10
0.0
 20
0.0
 30
0.0
  0
VERTEX
  5
301
330
300
100
AcDbEntity
  8
cuerpo
 62
     7
420
 16777215
370
    25
100
AcDbVertex
100
AcDb2dVertex
 10
99.5458984375
 20
88.517578125
 30
0.0
  0
VERTEX
  5
302
330
300
100
AcDbEntity
  8
cuerpo
 62
     7
420
 16777215
370
    25
100
AcDbVertex
100
AcDb2dVertex
 10
99.5458984375
 20
124.134765625
 30
0.0
  0
SEQEND
  5
303
330
300
100
AcDbEntity
  8
cuerpo
370
    25
  0
ENDBLK
  5
2FF
330
2FC
100
AcDbEntity
  8
0
100
AcDbBlockEnd
  0
BLOCK
  5
306
330
304
100
AcDbEntity
  8
0
100
AcDbBlockBegin
  2
block 100
 70
     0
 71
     0
 10
0.0
 20
0.0
 30
0.0
  3
block 100
  1

  0
POLYLINE
  5
308
330
304
100
AcDbEntity
  8
cuerpo
 62
     7
420
 16777215
370
    25
100
AcDb2dPolyline
 66
     1
 10
0.0
 20
0.0
 30
0.0
  0
VERTEX
  5
309
330
308
100
AcDbEntity
  8
cuerpo
 62
     7
420
 16777215
370
    25
100
AcDbVertex
100
AcDb2dVertex
 10
114.884765625
 20
79.4521484375
 30
0.0
  0
VERTEX
  5
30A
330
308
100
AcDbEntity
  8
cuerpo
 62
     7
420
 16777215
370
    25
100
AcDbVertex
100
AcDb2dVertex
 10
101.32666015625
 20
79.4521484375
 30
0.0
  0
SEQEND
  5
30B
330
308
100
AcDbEntity
  8
cuerpo
370
    25
  0
ENDBLK
  5
307
330
304
100
AcDbEntity
  8
0
100
AcDbBlockEnd
  0
BLOCK
  5
30E
330
30C
100
AcDbEntity
  8
0
100
AcDbBlockBegin
  2
block 101
 70
     0
 71
     0
 10
0.0
 20
0.0
 30
0.0
  3
block 101
  1

  0
SPLINE
  5
310
330
30C
100
AcDbEntity
  8
cuerpo
 62
     7
420
 16777215
370
    25
100
AcDbSpline
210
0.0
220
0.0
230
1.0
 70
     8
 71
     3
 72
     8
 73
     4
 74
     0
 42
0.0000000001
 43
0.0000000001
 40
0.0
 40
0.0
 40
0.0
 40
0.0
 40
1.0
 40
1.0
 40
1.0
 40
1.0
 10
84.10107421875
 20
68.443359375
 30
0.0
 10
84.10107421875
 20
64.8662109375
 30
0.0
 10
87.00048828125
 20
61.9677734375
 30
0.0
 10
90.5771484375
 20
61.9677734375
 30
0.0
  0
ENDBLK
  5
30F
330
30C
100
AcDbEntity
  8
0
100
AcDbBlockEnd
  0
BLOCK
  5
313
330
311
100
AcDbEntity
  8
0
100
AcDbBlockBegin
  2
block 102
 70
     0
 71
     0
 10
0.0
 20
0.0
 30
0.0
  3
block 102
  1

  0
POLYLINE
  5
315
330
311
100
AcDbEntity
  8
cuerpo
 62
     7
420
 16777215
370
    25
100
AcDb2dPolyline
 66
     1
 10
0.0
 20
0.0
 30
0.0
  0
VERTEX
  5
316
330
315
100
AcDbEntity
  8
cuerpo
 62
     7
420
 16777215
370
    25
100
AcDbVertex
100
AcDb2dVertex
 10
84.32763671875
 20
88.517578125
 30
0.0
  0
VERTEX
  5
317
330
315
100
AcDbEntity
  8
cuerpo
 62
     7
420
 16777215
370
    25
100
AcDbVertex
100
AcDb2dVertex
 10
101.16455078125
 20
88.517578125
 30
0.0
  0
SEQEND
  5
318
330
315
100
AcDbEntity
  8
cuerpo
370
    25
  0
ENDBLK
  5
314
330
311
100
AcDbEntity
  8
0
100
AcDbBlockEnd
  0
BLOCK
  5
31B
330
319
100
AcDbEntity
  8
0
100
AcDbBlockBegin
  2
block 103
 70
     0
 71
     0
 10
0.0
 20
0.0
 30
0.0
  3
block 103
  1

  0
SPLINE
  5
31D
330
319
100
AcDbEntity
  8
cuerpo
 62
     7
420
 16777215
370
    25
100
AcDbSpline
210
0.0
220
0.0
230
1.0
 70
     8
 71
     3
 72
     8
 73
     4
 74
     0
 42
0.0000000001
 43
0.0000000001
 40
0.0
 40
0.0
 40
0.0
 40
0.0
 40
1.0
 40
1.0
 40
1.0
 40
1.0
 10
84.32763671875
 20
88.517578125
 30
0.0
 10
83.6123046875
 20
88.517578125
 30
0.0
 10
83.03271484375
 20
87.9384765625
 30
0.0
 10
83.03271484375
 20
87.22265625
 30
0.0
  0
ENDBLK
  5
31C
330
319
100
AcDbEntity
  8
0
100
AcDbBlockEnd
  0
BLOCK
  5
320
330
31E
100
AcDbEntity
  8
0
100
AcDbBlockBegin
  2
block 104
 70
     0
 71
     0
 10
0.0
 20
0.0
 30
0.0
  3
block 104
  1

  0
POLYLINE
  5
322
330
31E
100
AcDbEntity
  8
cuerpo
 62
     7
420
 16777215
370
    25
100
AcDb2dPolyline
 66
     1
 10
0.0
 20
0.0
 30
0.0
  0
VERTEX
  5
323
330
322
100
AcDbEntity
  8
cuerpo
 62
     7
420
 16777215
370
    25
100
AcDbVertex
100
AcDb2dVertex
 10
84.32763671875
 20
85.927734375
 30
0.0
  0
VERTEX
  5
324
330
322
100
AcDbEntity
  8
cuerpo
 62
     7
420
 16777215
370
    25
100
AcDbVertex
100
AcDb2dVertex
 10
101.16455078125
 20
85.927734375
 30
0.0
  0
SEQEND
  5
325
330
322
100
AcDbEntity
  8
cuerpo
370
    25
  0
ENDBLK
  5
321
330
31E
100
AcDbEntity
  8
0
100
AcDbBlockEnd
  0
BLOCK
  5
328
330
326
100
AcDbEntity
  8
0
100
AcDbBlockBegin
  2
block 105
 70
     0
 71
     0
 10
0.0
 20
0.0
 30
0.0
  3
block 105
  1

  0
SPLINE
  5
32A
330
326
100
AcDbEntity
  8
cuerpo
 62
     7
420
 16777215
370
    25
100
AcDbSpline
210
0.0
220
0.0
230
1.0
 70
     8
 71
     3
 72
     8
 73
     4
 74
     0
 42
0.0000000001
 43
0.0000000001
 40
0.0
 40
0.0
 40
0.0
 40
0.0
 40
1.0
 40
1.0
 40
1.0
 40
1.0
 10
83.03271484375
 20
87.22265625
 30
0.0
 10
83.03271484375
 20
86.5078125
 30
0.0
 10
83.6123046875
 20
85.927734375
 30
0.0
 10
84.32763671875
 20
85.927734375
 30
0.0
  0
ENDBLK
  5
329
330
326
100
AcDbEntity
  8
0
100
AcDbBlockEnd
  0
BLOCK
  5
32D
330
32B
100
AcDbEntity
  8
0
100
AcDbBlockBegin
  2
block 106
 70
     0
 71
     0
 10
0.0
 20
0.0
 30
0.0
  3
block 106
  1

  0
POLYLINE
  5
32F
330
32B
100
AcDbEntity
  8
cuerpo
 62
     7
420
 16777215
370
    25
100
AcDb2dPolyline
 66
     1
 10
0.0
 20
0.0
 30
0.0
  0
VERTEX
  5
330
330
32F
100
AcDbEntity
  8
cuerpo
 62
     7
420
 16777215
370
    25
100
AcDbVertex
100
AcDb2dVertex
 10
90.5771484375
 20
61.9677734375
 30
0.0
  0
VERTEX
  5
331
330
32F
100
AcDbEntity
  8
cuerpo
 62
     7
420
 16777215
370
    25
100
AcDbVertex
100
AcDb2dVertex
 10
114.884765625
 20
61.9677734375
 30
0.0
  0
SEQEND
  5
332
330
32F
100
AcDbEntity
  8
cuerpo
370
    25
  0
ENDBLK
  5
32E
330
32B
100
AcDbEntity
  8
0
100
AcDbBlockEnd
  0
BLOCK
  5
335
330
333
100
AcDbEntity
  8
0
100
AcDbBlockBegin
  2
block 107
 70
     0
 71
     0
 10
0.0
 20
0.0
 30
0.0
  3
block 107
  1

  0
POLYLINE
  5
337
330
333
100
AcDbEntity
  8
cuerpo
 62
     7
420
 16777215
370
    25
100
AcDb2dPolyline
 66
     1
 10
0.0
 20
0.0
 30
0.0
  0
VERTEX
  5
338
330
337
100
AcDbEntity
  8
cuerpo
 62
     7
420
 16777215
370
    25
100
AcDbVertex
100
AcDb2dVertex
 10
114.884765625
 20
88.1943359375
 30
0.0
  0
VERTEX
  5
339
330
337
100
AcDbEntity
  8
cuerpo
 62
     7
420
 16777215
370
    25
100
AcDbVertex
100
AcDb2dVertex
 10
114.884765625
 20
53.224609375
 30
0.0
  0
SEQEND
  5
33A
330
337
100
AcDbEntity
  8
cuerpo
370
    25
  0
ENDBLK
  5
336
330
333
100
AcDbEntity
  8
0
100
AcDbBlockEnd
  0
BLOCK
  5
33D
330
33B
100
AcDbEntity
  8
0
100
AcDbBlockBegin
  2
block 108
 70
     0
 71
     0
 10
0.0
 20
0.0
 30
0.0
  3
block 108
  1

  0
POLYLINE
  5
33F
330
33B
100
AcDbEntity
  8
cuerpo
 62
     7
420
 16777215
370
    25
100
AcDb2dPolyline
 66
     1
 10
0.0
 20
0.0
 30
0.0
  0
VERTEX
  5
340
330
33F
100
AcDbEntity
  8
cuerpo
 62
     7
420
 16777215
370
    25
100
AcDbVertex
100
AcDb2dVertex
 10
84.10107421875
 20
82.220703125
 30
0.0
  0
VERTEX
  5
341
330
33F
100
AcDbEntity
  8
cuerpo
 62
     7
420
 16777215
370
    25
100
AcDbVertex
100
AcDb2dVertex
 10
84.10107421875
 20
68.443359375
 30
0.0
  0
SEQEND
  5
342
330
33F
100
AcDbEntity
  8
cuerpo
370
    25
  0
ENDBLK
  5
33E
330
33B
100
AcDbEntity
  8
0
100
AcDbBlockEnd
  0
BLOCK
  5
345
330
343
100
AcDbEntity
  8
0
100
AcDbBlockBegin
  2
block 109
 70
     0
 71
     0
 10
0.0
 20
0.0
 30
0.0
  3
block 109
  1

  0
POLYLINE
  5
347
330
343
100
AcDbEntity
  8
cuerpo
 62
     7
420
 16777215
370
    25
100
AcDb2dPolyline
 66
     1
 10
0.0
 20
0.0
 30
0.0
  0
VERTEX
  5
348
330
347
100
AcDbEntity
  8
cuerpo
 62
     7
420
 16777215
370
    25
100
AcDbVertex
100
AcDb2dVertex
 10
101.32666015625
 20
82.220703125
 30
0.0
  0
VERTEX
  5
349
330
347
100
AcDbEntity
  8
cuerpo
 62
     7
420
 16777215
370
    25
100
AcDbVertex
100
AcDb2dVertex
 10
101.32666015625
 20
79.4521484375
 30
0.0
  0
SEQEND
  5
34A
330
347
100
AcDbEntity
  8
cuerpo
370
    25
  0
ENDBLK
  5
346
330
343
100
AcDbEntity
  8
0
100
AcDbBlockEnd
  0
BLOCK
  5
34D
330
34B
100
AcDbEntity
  8
0
100
AcDbBlockBegin
  2
block 110
 70
     0
 71
     0
 10
0.0
 20
0.0
 30
0.0
  3
block 110
  1

  0
SPLINE
  5
34F
330
34B
100
AcDbEntity
  8
cuerpo
 62
     7
420
 16777215
370
    25
100
AcDbSpline
210
0.0
220
0.0
230
1.0
 70
     8
 71
     3
 72
     8
 73
     4
 74
     0
 42
0.0000000001
 43
0.0000000001
 40
0.0
 40
0.0
 40
0.0
 40
0.0
 40
1.0
 40
1.0
 40
1.0
 40
1.0
 10
101.32666015625
 20
79.4521484375
 30
0.0
 10
97.138671875
 20
76.42578125
 30
0.0
 10
93.50244140625
 20
72.7021484375
 30
0.0
 10
90.5771484375
 20
68.443359375
 30
0.0
  0
ENDBLK
  5
34E
330
34B
100
AcDbEntity
  8
0
100
AcDbBlockEnd
  0
BLOCK
  5
352
330
350
100
AcDbEntity
  8
0
100
AcDbBlockBegin
  2
block 111
 70
     0
 71
     0
 10
0.0
 20
0.0
 30
0.0
  3
block 111
  1

  0
POLYLINE
  5
354
330
350
100
AcDbEntity
  8
cuerpo
 62
     7
420
 16777215
370
    25
100
AcDb2dPolyline
 66
     1
 10
0.0
 20
0.0
 30
0.0
  0
VERTEX
  5
355
330
354
100
AcDbEntity
  8
cuerpo
 62
     7
420
 16777215
370
    25
100
AcDbVertex
100
AcDb2dVertex
 10
101.423828125
 20
82.232421875
 30
0.0
  0
VERTEX
  5
356
330
354
100
AcDbEntity
  8
cuerpo
 62
     7
420
 16777215
370
    25
100
AcDbVertex
100
AcDb2dVertex
 10
101.423828125
 20
85.927734375
 30
0.0
  0
SEQEND
  5
357
330
354
100
AcDbEntity
  8
cuerpo
370
    25
  0
ENDBLK
  5
353
330
350
100
AcDbEntity
  8
0
100
AcDbBlockEnd
  0
BLOCK
  5
35A
330
358
100
AcDbEntity
  8
0
100
AcDbBlockBegin
  2
block 112
 70
     0
 71
     0
 10
0.0
 20
0.0
 30
0.0
  3
block 112
  1

  0
POLYLINE
  5
35C
330
358
100
AcDbEntity
  8
cuerpo
 62
     7
420
 16777215
370
    25
100
AcDb2dPolyline
 66
     1
 10
0.0
 20
0.0
 30
0.0
  0
VERTEX
  5
35D
330
35C
100
AcDbEntity
  8
cuerpo
 62
     7
420
 16777215
370
    25
100
AcDbVertex
100
AcDb2dVertex
 10
100.77587890625
 20
82.15625
 30
0.0
  0
VERTEX
  5
35E
330
35C
100
AcDbEntity
  8
cuerpo
 62
     7
420
 16777215
370
    25
100
AcDbVertex
100
AcDb2dVertex
 10
100.77587890625
 20
85.927734375
 30
0.0
  0
SEQEND
  5
35F
330
35C
100
AcDbEntity
  8
cuerpo
370
    25
  0
ENDBLK
  5
35B
330
358
100
AcDbEntity
  8
0
100
AcDbBlockEnd
  0
BLOCK
  5
362
330
360
100
AcDbEntity
  8
0
100
AcDbBlockBegin
  2
block 113
 70
     0
 71
     0
 10
0.0
 20
0.0
 30
0.0
  3
block 113
  1

  0
POLYLINE
  5
364
330
360
100
AcDbEntity
  8
cuerpo
 62
     7
420
 16777215
370
    25
100
AcDb2dPolyline
 66
     1
 10
0.0
 20
0.0
 30
0.0
  0
VERTEX
  5
365
330
364
100
AcDbEntity
  8
cuerpo
 62
     7
420
 16777215
370
    25
100
AcDbVertex
100
AcDb2dVertex
 10
83.03271484375
 20
87.22265625
 30
0.0
  0
VERTEX
  5
366
330
364
100
AcDbEntity
  8
cuerpo
 62
     7
420
 16777215
370
    25
100
AcDbVertex
100
AcDb2dVertex
 10
83.03271484375
 20
87.22265625
 30
0.0
  0
SEQEND
  5
367
330
364
100
AcDbEntity
  8
cuerpo
370
    25
  0
ENDBLK
  5
363
330
360
100
AcDbEntity
  8
0
100
AcDbBlockEnd
  0
BLOCK
  5
36A
330
368
100
AcDbEntity
  8
0
100
AcDbBlockBegin
  2
block 114
 70
     0
 71
     0
 10
0.0
 20
0.0
 30
0.0
  3
block 114
  1

  0
POLYLINE
  5
36C
330
368
100
AcDbEntity
  8
cuerpo
 62
     7
420
 16777215
370
    25
100
AcDb2dPolyline
 66
     1
 10
0.0
 20
0.0
 30
0.0
  0
VERTEX
  5
36D
330
36C
100
AcDbEntity
  8
cuerpo
 62
     7
420
 16777215
370
    25
100
AcDbVertex
100
AcDb2dVertex
 10
102.4599609375
 20
87.22265625
 30
0.0
  0
VERTEX
  5
36E
330
36C
100
AcDbEntity
  8
cuerpo
 62
     7
420
 16777215
370
    25
100
AcDbVertex
100
AcDb2dVertex
 10
102.4599609375
 20
87.22265625
 30
0.0
  0
SEQEND
  5
36F
330
36C
100
AcDbEntity
  8
cuerpo
370
    25
  0
ENDBLK
  5
36B
330
368
100
AcDbEntity
  8
0
100
AcDbBlockEnd
  0
BLOCK
  5
372
330
370
100
AcDbEntity
  8
0
100
AcDbBlockBegin
  2
block 115
 70
     0
 71
     0
 10
0.0
 20
0.0
 30
0.0
  3
block 115
  1

  0
SPLINE
  5
374
330
370
100
AcDbEntity
  8
cuerpo
 62
     7
420
 16777215
370
    25
100
AcDbSpline
210
0.0
220
0.0
230
1.0
 70
     8
 71
     3
 72
     8
 73
     4
 74
     0
 42
0.0000000001
 43
0.0000000001
 40
0.0
 40
0.0
 40
0.0
 40
0.0
 40
1.0
 40
1.0
 40
1.0
 40
1.0
 10
101.16455078125
 20
85.927734375
 30
0.0
 10
101.8798828125
 20
85.927734375
 30
0.0
 10
102.4599609375
 20
86.5078125
 30
0.0
 10
102.4599609375
 20
87.22265625
 30
0.0
  0
ENDBLK
  5
373
330
370
100
AcDbEntity
  8
0
100
AcDbBlockEnd
  0
BLOCK
  5
377
330
375
100
AcDbEntity
  8
0
100
AcDbBlockBegin
  2
block 116
 70
     0
 71
     0
 10
0.0
 20
0.0
 30
0.0
  3
block 116
  1

  0
SPLINE
  5
379
330
375
100
AcDbEntity
  8
cuerpo
 62
     7
420
 16777215
370
    25
100
AcDbSpline
210
0.0
220
0.0
230
1.0
 70
     8
 71
     3
 72
     8
 73
     4
 74
     0
 42
0.0000000001
 43
0.0000000001
 40
0.0
 40
0.0
 40
0.0
 40
0.0
 40
1.0
 40
1.0
 40
1.0
 40
1.0
 10
102.4599609375
 20
87.22265625
 30
0.0
 10
102.4599609375
 20
87.9384765625
 30
0.0
 10
101.8798828125
 20
88.517578125
 30
0.0
 10
101.16455078125
 20
88.517578125
 30
0.0
  0
ENDBLK
  5
378
330
375
100
AcDbEntity
  8
0
100
AcDbBlockEnd
  0
BLOCK
  5
37C
330
37A
100
AcDbEntity
  8
0
100
AcDbBlockBegin
  2
block 117
 70
     0
 71
     0
 10
0.0
 20
0.0
 30
0.0
  3
block 117
  1

  0
POLYLINE
  5
37E
330
37A
100
AcDbEntity
  8
cuerpo
 62
     7
420
 16777215
370
    25
100
AcDb2dPolyline
 66
     1
 10
0.0
 20
0.0
 30
0.0
  0
VERTEX
  5
37F
330
37E
100
AcDbEntity
  8
cuerpo
 62
     7
420
 16777215
370
    25
100
AcDbVertex
100
AcDb2dVertex
 10
92.0341796875
 20
82.232421875
 30
0.0
  0
VERTEX
  5
380
330
37E
100
AcDbEntity
  8
cuerpo
 62
     7
420
 16777215
370
    25
100
AcDbVertex
100
AcDb2dVertex
 10
92.0341796875
 20
85.927734375
 30
0.0
  0
SEQEND
  5
381
330
37E
100
AcDbEntity
  8
cuerpo
370
    25
  0
ENDBLK
  5
37D
330
37A
100
AcDbEntity
  8
0
100
AcDbBlockEnd
  0
BLOCK
  5
384
330
382
100
AcDbEntity
  8
0
100
AcDbBlockBegin
  2
block 118
 70
     0
 71
     0
 10
0.0
 20
0.0
 30
0.0
  3
block 118
  1

  0
POLYLINE
  5
386
330
382
100
AcDbEntity
  8
cuerpo
 62
     7
420
 16777215
370
    25
100
AcDb2dPolyline
 66
     1
 10
0.0
 20
0.0
 30
0.0
  0
VERTEX
  5
387
330
386
100
AcDbEntity
  8
cuerpo
 62
     7
420
 16777215
370
    25
100
AcDbVertex
100
AcDb2dVertex
 10
93.39404296875
 20
82.232421875
 30
0.0
  0
VERTEX
  5
388
330
386
100
AcDbEntity
  8
cuerpo
 62
     7
420
 16777215
370
    25
100
AcDbVertex
100
AcDb2dVertex
 10
93.39404296875
 20
85.927734375
 30
0.0
  0
SEQEND
  5
389
330
386
100
AcDbEntity
  8
cuerpo
370
    25
  0
ENDBLK
  5
385
330
382
100
AcDbEntity
  8
0
100
AcDbBlockEnd
  0
BLOCK
  5
38C
330
38A
100
AcDbEntity
  8
0
100
AcDbBlockBegin
  2
block 119
 70
     0
 71
     0
 10
0.0
 20
0.0
 30
0.0
  3
block 119
  1

  0
POLYLINE
  5
38E
330
38A
100
AcDbEntity
  8
cuerpo
 62
     7
420
 16777215
370
    25
100
AcDb2dPolyline
 66
     1
 10
0.0
 20
0.0
 30
0.0
  0
VERTEX
  5
38F
330
38E
100
AcDbEntity
  8
cuerpo
 62
     7
420
 16777215
370
    25
100
AcDbVertex
100
AcDb2dVertex
 10
84.00390625
 20
82.232421875
 30
0.0
  0
VERTEX
  5
390
330
38E
100
AcDbEntity
  8
cuerpo
 62
     7
420
 16777215
370
    25
100
AcDbVertex
100
AcDb2dVertex
 10
84.00390625
 20
85.927734375
 30
0.0
  0
SEQEND
  5
391
330
38E
100
AcDbEntity
  8
cuerpo
370
    25
  0
ENDBLK
  5
38D
330
38A
100
AcDbEntity
  8
0
100
AcDbBlockEnd
  0
BLOCK
  5
394
330
392
100
AcDbEntity
  8
0
100
AcDbBlockBegin
  2
block 120
 70
     0
 71
     0
 10
0.0
 20
0.0
 30
0.0
  3
block 120
  1

  0
POLYLINE
  5
396
330
392
100
AcDbEntity
  8
cuerpo
 62
     7
420
 16777215
370
    25
100
AcDb2dPolyline
 66
     1
 10
0.0
 20
0.0
 30
0.0
  0
VERTEX
  5
397
330
396
100
AcDbEntity
  8
cuerpo
 62
     7
420
 16777215
370
    25
100
AcDbVertex
100
AcDb2dVertex
 10
84.6513671875
 20
82.15625
 30
0.0
  0
VERTEX
  5
398
330
396
100
AcDbEntity
  8
cuerpo
 62
     7
420
 16777215
370
    25
100
AcDbVertex
100
AcDb2dVertex
 10
84.6513671875
 20
85.927734375
 30
0.0
  0
SEQEND
  5
399
330
396
100
AcDbEntity
  8
cuerpo
370
    25
  0
ENDBLK
  5
395
330
392
100
AcDbEntity
  8
0
100
AcDbBlockEnd
  0
BLOCK
  5
39C
330
39A
100
AcDbEntity
  8
0
100
AcDbBlockBegin
  2
block 121
 70
     0
 71
     0
 10
0.0
 20
0.0
 30
0.0
  3
block 121
  1

  0
SPLINE
  5
39E
330
39A
100
AcDbEntity
  8
cuerpo
 62
     7
420
 16777215
370
    25
100
AcDbSpline
210
0.0
220
0.0
230
1.0
 70
     8
 71
     3
 72
     8
 73
     4
 74
     0
 42
0.0000000001
 43
0.0000000001
 40
0.0
 40
0.0
 40
0.0
 40
0.0
 40
1.0
 40
1.0
 40
1.0
 40
1.0
 10
93.39404296875
 20
82.232421875
 30
0.0
 10
96.0595703125
 20
81.8876953125
 30
0.0
 10
98.75830078125
 20
81.8876953125
 30
0.0
 10
101.423828125
 20
82.232421875
 30
0.0
  0
ENDBLK
  5
39D
330
39A
100
AcDbEntity
  8
0
100
AcDbBlockEnd
  0
BLOCK
  5
3A1
330
39F
100
AcDbEntity
  8
0
100
AcDbBlockBegin
  2
block 122
 70
     0
 71
     0
 10
0.0
 20
0.0
 30
0.0
  3
block 122
  1

  0
SPLINE
  5
3A3
330
39F
100
AcDbEntity
  8
cuerpo
 62
     7
420
 16777215
370
    25
100
AcDbSpline
210
0.0
220
0.0
230
1.0
 70
     8
 71
     3
 72
     8
 73
     4
 74
     0
 42
0.0000000001
 43
0.0000000001
 40
0.0
 40
0.0
 40
0.0
 40
0.0
 40
1.0
 40
1.0
 40
1.0
 40
1.0
 10
84.00390625
 20
82.232421875
 30
0.0
 10
86.66943359375
 20
81.8876953125
 30
0.0
 10
89.36865234375
 20
81.8876953125
 30
0.0
 10
92.0341796875
 20
82.232421875
 30
0.0
  0
ENDBLK
  5
3A2
330
39F
100
AcDbEntity
  8
0
100
AcDbBlockEnd
  0
BLOCK
  5
3A6
330
3A4
100
AcDbEntity
  8
0
100
AcDbBlockBegin
  2
block 123
 70
     0
 71
     0
 10
0.0
 20
0.0
 30
0.0
  3
block 123
  1

  0
POLYLINE
  5
3A8
330
3A4
100
AcDbEntity
  8
cuerpo
 62
     7
420
 16777215
370
    25
100
AcDb2dPolyline
 66
     1
 10
0.0
 20
0.0
 30
0.0
  0
VERTEX
  5
3A9
330
3A8
100
AcDbEntity
  8
cuerpo
 62
     7
420
 16777215
370
    25
100
AcDbVertex
100
AcDb2dVertex
 10
93.39404296875
 20
82.232421875
 30
0.0
  0
VERTEX
  5
3AA
330
3A8
100
AcDbEntity
  8
cuerpo
 62
     7
420
 16777215
370
    25
100
AcDbVertex
100
AcDb2dVertex
 10
92.0341796875
 20
82.232421875
 30
0.0
  0
SEQEND
  5
3AB
330
3A8
100
AcDbEntity
  8
cuerpo
370
    25
  0
ENDBLK
  5
3A7
330
3A4
100
AcDbEntity
  8
0
100
AcDbBlockEnd
  0
BLOCK
  5
3AE
330
3AC
100
AcDbEntity
  8
0
100
AcDbBlockBegin
  2
block 124
 70
     0
 71
     0
 10
0.0
 20
0.0
 30
0.0
  3
block 124
  1

  0
POLYLINE
  5
3B0
330
3AC
100
AcDbEntity
  8
cuerpo
 62
     7
420
 16777215
370
    25
100
AcDb2dPolyline
 66
     1
 10
0.0
 20
0.0
 30
0.0
  0
VERTEX
  5
3B1
330
3B0
100
AcDbEntity
  8
cuerpo
 62
     7
420
 16777215
370
    25
100
AcDbVertex
100
AcDb2dVertex
 10
146.61572265625
 20
81.419921875
 30
0.0
  0
VERTEX
  5
3B2
330
3B0
100
AcDbEntity
  8
cuerpo
 62
     7
420
 16777215
370
    25
100
AcDbVertex
100
AcDb2dVertex
 10
146.61572265625
 20
60.0
 30
0.0
  0
SEQEND
  5
3B3
330
3B0
100
AcDbEntity
  8
cuerpo
370
    25
  0
ENDBLK
  5
3AF
330
3AC
100
AcDbEntity
  8
0
100
AcDbBlockEnd
  0
BLOCK
  5
3B6
330
3B4
100
AcDbEntity
  8
0
100
AcDbBlockBegin
  2
block 125
 70
     0
 71
     0
 10
0.0
 20
0.0
 30
0.0
  3
block 125
  1

  0
POLYLINE
  5
3B8
330
3B4
100
AcDbEntity
  8
cuerpo
 62
     7
420
 16777215
370
    25
100
AcDb2dPolyline
 66
     1
 10
0.0
 20
0.0
 30
0.0
  0
VERTEX
  5
3B9
330
3B8
100
AcDbEntity
  8
cuerpo
 62
     7
420
 16777215
370
    25
100
AcDbVertex
100
AcDb2dVertex
 10
146.61572265625
 20
60.0
 30
0.0
  0
VERTEX
  5
3BA
330
3B8
100
AcDbEntity
  8
cuerpo
 62
     7
420
 16777215
370
    25
100
AcDbVertex
100
AcDb2dVertex
 10
124.59814453125
 20
60.0
 30
0.0
  0
SEQEND
  5
3BB
330
3B8
100
AcDbEntity
  8
cuerpo
370
    25
  0
ENDBLK
  5
3B7
330
3B4
100
AcDbEntity
  8
0
100
AcDbBlockEnd
  0
BLOCK
  5
3BE
330
3BC
100
AcDbEntity
  8
0
100
AcDbBlockBegin
  2
block 126
 70
     0
 71
     0
 10
0.0
 20
0.0
 30
0.0
  3
block 126
  1

  0
POLYLINE
  5
3C0
330
3BC
100
AcDbEntity
  8
cuerpo
 62
     7
420
 16777215
370
    25
100
AcDb2dPolyline
 66
     1
 10
0.0
 20
0.0
 30
0.0
  0
VERTEX
  5
3C1
330
3C0
100
AcDbEntity
  8
cuerpo
 62
     7
420
 16777215
370
    25
100
AcDbVertex
100
AcDb2dVertex
 10
124.59814453125
 20
88.3203125
 30
0.0
  0
VERTEX
  5
3C2
330
3C0
100
AcDbEntity
  8
cuerpo
 62
     7
420
 16777215
370
    25
100
AcDbVertex
100
AcDb2dVertex
 10
124.59814453125
 20
53.0986328125
 30
0.0
  0
SEQEND
  5
3C3
330
3C0
100
AcDbEntity
  8
cuerpo
370
    25
  0
ENDBLK
  5
3BF
330
3BC
100
AcDbEntity
  8
0
100
AcDbBlockEnd
  0
BLOCK
  5
3C6
330
3C4
100
AcDbEntity
  8
0
100
AcDbBlockBegin
  2
block 127
 70
     0
 71
     0
 10
0.0
 20
0.0
 30
0.0
  3
block 127
  1

  0
POLYLINE
  5
3C8
330
3C4
100
AcDbEntity
  8
cuerpo
 62
     7
420
 16777215
370
    25
100
AcDb2dPolyline
 66
     1
 10
0.0
 20
0.0
 30
0.0
  0
VERTEX
  5
3C9
330
3C8
100
AcDbEntity
  8
cuerpo
 62
     7
420
 16777215
370
    25
100
AcDbVertex
100
AcDb2dVertex
 10
124.59814453125
 20
53.0986328125
 30
0.0
  0
VERTEX
  5
3CA
330
3C8
100
AcDbEntity
  8
cuerpo
 62
     7
420
 16777215
370
    25
100
AcDbVertex
100
AcDb2dVertex
 10
114.884765625
 20
53.0986328125
 30
0.0
  0
SEQEND
  5
3CB
330
3C8
100
AcDbEntity
  8
cuerpo
370
    25
  0
ENDBLK
  5
3C7
330
3C4
100
AcDbEntity
  8
0
100
AcDbBlockEnd
  0
BLOCK
  5
3CE
330
3CC
100
AcDbEntity
  8
0
100
AcDbBlockBegin
  2
block 128
 70
     0
 71
     0
 10
0.0
 20
0.0
 30
0.0
  3
block 128
  1

  0
POLYLINE
  5
3D0
330
3CC
100
AcDbEntity
  8
cuerpo
 62
     7
420
 16777215
370
    25
100
AcDb2dPolyline
 66
     1
 10
0.0
 20
0.0
 30
0.0
  0
VERTEX
  5
3D1
330
3D0
100
AcDbEntity
  8
cuerpo
 62
     7
420
 16777215
370
    25
100
AcDbVertex
100
AcDb2dVertex
 10
114.884765625
 20
88.3203125
 30
0.0
  0
VERTEX
  5
3D2
330
3D0
100
AcDbEntity
  8
cuerpo
 62
     7
420
 16777215
370
    25
100
AcDbVertex
100
AcDb2dVertex
 10
114.884765625
 20
53.0986328125
 30
0.0
  0
SEQEND
  5
3D3
330
3D0
100
AcDbEntity
  8
cuerpo
370
    25
  0
ENDBLK
  5
3CF
330
3CC
100
AcDbEntity
  8
0
100
AcDbBlockEnd
  0
BLOCK
  5
3D6
330
3D4
100
AcDbEntity
  8
0
100
AcDbBlockBegin
  2
block 129
 70
     0
 71
     0
 10
0.0
 20
0.0
 30
0.0
  3
block 129
  1

  0
POLYLINE
  5
3D8
330
3D4
100
AcDbEntity
  8
cuerpo
 62
     7
420
 16777215
370
    25
100
AcDb2dPolyline
 66
     1
 10
0.0
 20
0.0
 30
0.0
  0
VERTEX
  5
3D9
330
3D8
100
AcDbEntity
  8
cuerpo
 62
     7
420
 16777215
370
    25
100
AcDbVertex
100
AcDb2dVertex
 10
124.59814453125
 20
88.3203125
 30
0.0
  0
VERTEX
  5
3DA
330
3D8
100
AcDbEntity
  8
cuerpo
 62
     7
420
 16777215
370
    25
100
AcDbVertex
100
AcDb2dVertex
 10
114.884765625
 20
88.3203125
 30
0.0
  0
SEQEND
  5
3DB
330
3D8
100
AcDbEntity
  8
cuerpo
370
    25
  0
ENDBLK
  5
3D7
330
3D4
100
AcDbEntity
  8
0
100
AcDbBlockEnd
  0
BLOCK
  5
3DE
330
3DC
100
AcDbEntity
  8
0
100
AcDbBlockBegin
  2
block 130
 70
     0
 71
     0
 10
0.0
 20
0.0
 30
0.0
  3
block 130
  1

  0
POLYLINE
  5
3E0
330
3DC
100
AcDbEntity
  8
cuerpo
 62
     7
420
 16777215
370
    25
100
AcDb2dPolyline
 66
     1
 10
0.0
 20
0.0
 30
0.0
  0
VERTEX
  5
3E1
330
3E0
100
AcDbEntity
  8
cuerpo
 62
     7
420
 16777215
370
    25
100
AcDbVertex
100
AcDb2dVertex
 10
124.59814453125
 20
81.419921875
 30
0.0
  0
VERTEX
  5
3E2
330
3E0
100
AcDbEntity
  8
cuerpo
 62
     7
420
 16777215
370
    25
100
AcDbVertex
100
AcDb2dVertex
 10
146.61572265625
 20
81.419921875
 30
0.0
  0
SEQEND
  5
3E3
330
3E0
100
AcDbEntity
  8
cuerpo
370
    25
  0
ENDBLK
  5
3DF
330
3DC
100
AcDbEntity
  8
0
100
AcDbBlockEnd
  0
BLOCK
  5
3E6
330
3E4
100
AcDbEntity
  8
0
100
AcDbBlockBegin
  2
block 131
 70
     0
 71
     0
 10
0.0
 20
0.0
 30
0.0
  3
block 131
  1

  0
POLYLINE
  5
3E8
330
3E4
100
AcDbEntity
  8
cuerpo
 62
     7
420
 16777215
370
    25
100
AcDb2dPolyline
 66
     1
 10
0.0
 20
0.0
 30
0.0
  0
VERTEX
  5
3E9
330
3E8
100
AcDbEntity
  8
cuerpo
 62
     7
420
 16777215
370
    25
100
AcDbVertex
100
AcDb2dVertex
 10
146.61572265625
 20
74.5947265625
 30
0.0
  0
VERTEX
  5
3EA
330
3E8
100
AcDbEntity
  8
cuerpo
 62
     7
420
 16777215
370
    25
100
AcDbVertex
100
AcDb2dVertex
 10
162.80517578125
 20
74.5947265625
 30
0.0
  0
SEQEND
  5
3EB
330
3E8
100
AcDbEntity
  8
cuerpo
370
    25
  0
ENDBLK
  5
3E7
330
3E4
100
AcDbEntity
  8
0
100
AcDbBlockEnd
  0
BLOCK
  5
3EE
330
3EC
100
AcDbEntity
  8
0
100
AcDbBlockBegin
  2
block 132
 70
     0
 71
     0
 10
0.0
 20
0.0
 30
0.0
  3
block 132
  1

  0
POLYLINE
  5
3F0
330
3EC
100
AcDbEntity
  8
cuerpo
 62
     7
420
 16777215
370
    25
100
AcDb2dPolyline
 66
     1
 10
0.0
 20
0.0
 30
0.0
  0
VERTEX
  5
3F1
330
3F0
100
AcDbEntity
  8
cuerpo
 62
     7
420
 16777215
370
    25
100
AcDbVertex
100
AcDb2dVertex
 10
146.61572265625
 20
66.82421875
 30
0.0
  0
VERTEX
  5
3F2
330
3F0
100
AcDbEntity
  8
cuerpo
 62
     7
420
 16777215
370
    25
100
AcDbVertex
100
AcDb2dVertex
 10
162.80517578125
 20
66.82421875
 30
0.0
  0
SEQEND
  5
3F3
330
3F0
100
AcDbEntity
  8
cuerpo
370
    25
  0
ENDBLK
  5
3EF
330
3EC
100
AcDbEntity
  8
0
100
AcDbBlockEnd
  0
BLOCK
  5
3F6
330
3F4
100
AcDbEntity
  8
0
100
AcDbBlockBegin
  2
block 133
 70
     0
 71
     0
 10
0.0
 20
0.0
 30
0.0
  3
block 133
  1

  0
SPLINE
  5
3F8
330
3F4
100
AcDbEntity
  8
cuerpo
 62
     7
420
 16777215
370
    25
100
AcDbSpline
210
0.0
220
0.0
230
1.0
 70
     8
 71
     3
 72
    14
 73
    10
 74
     0
 42
0.0000000001
 43
0.0000000001
 40
0.0
 40
0.0
 40
0.0
 40
0.0
 40
1.0
 40
1.0
 40
1.0
 40
2.0
 40
2.0
 40
2.0
 40
3.0
 40
3.0
 40
3.0
 40
3.0
 10
169.28076171875
 20
74.3232421875
 30
0.0
 10
167.322265625
 20
75.5751953125
 30
0.0
 10
164.71923828125
 20
75.001953125
 30
0.0
 10
163.4677734375
 20
73.04296875
 30
0.0
 10
162.2158203125
 20
71.083984375
 30
0.0
 10
162.7890625
 20
68.4814453125
 30
0.0
 10
164.748046875
 20
67.2294921875
 30
0.0
 10
166.1298828125
 20
66.3466796875
 30
0.0
 10
167.89892578125
 20
66.3466796875
 30
0.0
 10
169.28076171875
 20
67.2294921875
 30
0.0
  0
ENDBLK
  5
3F7
330
3F4
100
AcDbEntity
  8
0
100
AcDbBlockEnd
  0
BLOCK
  5
3FB
330
3F9
100
AcDbEntity
  8
0
100
AcDbBlockBegin
  2
block 134
 70
     0
 71
     0
 10
0.0
 20
0.0
 30
0.0
  3
block 134
  1

  0
POLYLINE
  5
3FD
330
3F9
100
AcDbEntity
  8
cuerpo
 62
     7
420
 16777215
370
    25
100
AcDb2dPolyline
 66
     1
 10
0.0
 20
0.0
 30
0.0
  0
VERTEX
  5
3FE
330
3FD
100
AcDbEntity
  8
cuerpo
 62
     7
420
 16777215
370
    25
100
AcDbVertex
100
AcDb2dVertex
 10
169.28076171875
 20
74.3232421875
 30
0.0
  0
VERTEX
  5
3FF
330
3FD
100
AcDbEntity
  8
cuerpo
 62
     7
420
 16777215
370
    25
100
AcDbVertex
100
AcDb2dVertex
 10
169.28076171875
 20
67.2294921875
 30
0.0
  0
SEQEND
  5
400
330
3FD
100
AcDbEntity
  8
cuerpo
370
    25
  0
ENDBLK
  5
3FC
330
3F9
100
AcDbEntity
  8
0
100
AcDbBlockEnd
  0
BLOCK
  5
403
330
401
100
AcDbEntity
  8
0
100
AcDbBlockBegin
  2
block 135
 70
     0
 71
     0
 10
0.0
 20
0.0
 30
0.0
  3
block 135
  1

  0
POLYLINE
  5
405
330
401
100
AcDbEntity
  8
cuerpo
 62
     7
420
 16777215
370
    25
100
AcDb2dPolyline
 66
     1
 10
0.0
 20
0.0
 30
0.0
  0
VERTEX
  5
406
330
405
100
AcDbEntity
  8
cuerpo
 62
     7
420
 16777215
370
    25
100
AcDbVertex
100
AcDb2dVertex
 10
169.28076171875
 20
70.7763671875
 30
0.0
  0
VERTEX
  5
407
330
405
100
AcDbEntity
  8
cuerpo
 62
     7
420
 16777215
370
    25
100
AcDbVertex
100
AcDb2dVertex
 10
169.28076171875
 20
92.146484375
 30
0.0
  0
SEQEND
  5
408
330
405
100
AcDbEntity
  8
cuerpo
370
    25
  0
ENDBLK
  5
404
330
401
100
AcDbEntity
  8
0
100
AcDbBlockEnd
  0
BLOCK
  5
40B
330
409
100
AcDbEntity
  8
0
100
AcDbBlockBegin
  2
block 136
 70
     0
 71
     0
 10
0.0
 20
0.0
 30
0.0
  3
block 136
  1

  0
POLYLINE
  5
40D
330
409
100
AcDbEntity
  8
cuerpo
 62
     7
420
 16777215
370
    25
100
AcDb2dPolyline
 66
     1
 10
0.0
 20
0.0
 30
0.0
  0
VERTEX
  5
40E
330
40D
100
AcDbEntity
  8
cuerpo
 62
     7
420
 16777215
370
    25
100
AcDbVertex
100
AcDb2dVertex
 10
169.28076171875
 20
92.146484375
 30
0.0
  0
VERTEX
  5
40F
330
40D
100
AcDbEntity
  8
cuerpo
 62
     7
420
 16777215
370
    25
100
AcDbVertex
100
AcDb2dVertex
 10
162.80517578125
 20
92.146484375
 30
0.0
  0
SEQEND
  5
410
330
40D
100
AcDbEntity
  8
cuerpo
370
    25
  0
ENDBLK
  5
40C
330
409
100
AcDbEntity
  8
0
100
AcDbBlockEnd
  0
BLOCK
  5
413
330
411
100
AcDbEntity
  8
0
100
AcDbBlockBegin
  2
block 137
 70
     0
 71
     0
 10
0.0
 20
0.0
 30
0.0
  3
block 137
  1

  0
POLYLINE
  5
415
330
411
100
AcDbEntity
  8
cuerpo
 62
     7
420
 16777215
370
    25
100
AcDb2dPolyline
 66
     1
 10
0.0
 20
0.0
 30
0.0
  0
VERTEX
  5
416
330
415
100
AcDbEntity
  8
cuerpo
 62
     7
420
 16777215
370
    25
100
AcDbVertex
100
AcDb2dVertex
 10
162.80517578125
 20
92.146484375
 30
0.0
  0
VERTEX
  5
417
330
415
100
AcDbEntity
  8
cuerpo
 62
     7
420
 16777215
370
    25
100
AcDbVertex
100
AcDb2dVertex
 10
162.80517578125
 20
74.5947265625
 30
0.0
  0
SEQEND
  5
418
330
415
100
AcDbEntity
  8
cuerpo
370
    25
  0
ENDBLK
  5
414
330
411
100
AcDbEntity
  8
0
100
AcDbBlockEnd
  0
BLOCK
  5
41B
330
419
100
AcDbEntity
  8
0
100
AcDbBlockBegin
  2
block 138
 70
     0
 71
     0
 10
0.0
 20
0.0
 30
0.0
  3
block 138
  1

  0
POLYLINE
  5
41D
330
419
100
AcDbEntity
  8
cuerpo
 62
     7
420
 16777215
370
    25
100
AcDb2dPolyline
 66
     1
 10
0.0
 20
0.0
 30
0.0
  0
VERTEX
  5
41E
330
41D
100
AcDbEntity
  8
cuerpo
 62
     7
420
 16777215
370
    25
100
AcDbVertex
100
AcDb2dVertex
 10
169.28076171875
 20
70.642578125
 30
0.0
  0
VERTEX
  5
41F
330
41D
100
AcDbEntity
  8
cuerpo
 62
     7
420
 16777215
370
    25
100
AcDbVertex
100
AcDb2dVertex
 10
169.28076171875
 20
49.2724609375
 30
0.0
  0
SEQEND
  5
420
330
41D
100
AcDbEntity
  8
cuerpo
370
    25
  0
ENDBLK
  5
41C
330
419
100
AcDbEntity
  8
0
100
AcDbBlockEnd
  0
BLOCK
  5
423
330
421
100
AcDbEntity
  8
0
100
AcDbBlockBegin
  2
block 139
 70
     0
 71
     0
 10
0.0
 20
0.0
 30
0.0
  3
block 139
  1

  0
POLYLINE
  5
425
330
421
100
AcDbEntity
  8
cuerpo
 62
     7
420
 16777215
370
    25
100
AcDb2dPolyline
 66
     1
 10
0.0
 20
0.0
 30
0.0
  0
VERTEX
  5
426
330
425
100
AcDbEntity
  8
cuerpo
 62
     7
420
 16777215
370
    25
100
AcDbVertex
100
AcDb2dVertex
 10
169.28076171875
 20
49.2724609375
 30
0.0
  0
VERTEX
  5
427
330
425
100
AcDbEntity
  8
cuerpo
 62
     7
420
 16777215
370
    25
100
AcDbVertex
100
AcDb2dVertex
 10
162.80517578125
 20
49.2724609375
 30
0.0
  0
SEQEND
  5
428
330
425
100
AcDbEntity
  8
cuerpo
370
    25
  0
ENDBLK
  5
424
330
421
100
AcDbEntity
  8
0
100
AcDbBlockEnd
  0
BLOCK
  5
42B
330
429
100
AcDbEntity
  8
0
100
AcDbBlockBegin
  2
block 140
 70
     0
 71
     0
 10
0.0
 20
0.0
 30
0.0
  3
block 140
  1

  0
POLYLINE
  5
42D
330
429
100
AcDbEntity
  8
cuerpo
 62
     7
420
 16777215
370
    25
100
AcDb2dPolyline
 66
     1
 10
0.0
 20
0.0
 30
0.0
  0
VERTEX
  5
42E
330
42D
100
AcDbEntity
  8
cuerpo
 62
     7
420
 16777215
370
    25
100
AcDbVertex
100
AcDb2dVertex
 10
162.80517578125
 20
74.5947265625
 30
0.0
  0
VERTEX
  5
42F
330
42D
100
AcDbEntity
  8
cuerpo
 62
     7
420
 16777215
370
    25
100
AcDbVertex
100
AcDb2dVertex
 10
163.84912109375
 20
73.5517578125
 30
0.0
  0
SEQEND
  5
430
330
42D
100
AcDbEntity
  8
cuerpo
370
    25
  0
ENDBLK
  5
42C
330
429
100
AcDbEntity
  8
0
100
AcDbBlockEnd
  0
BLOCK
  5
433
330
431
100
AcDbEntity
  8
0
100
AcDbBlockBegin
  2
block 141
 70
     0
 71
     0
 10
0.0
 20
0.0
 30
0.0
  3
block 141
  1

  0
POLYLINE
  5
435
330
431
100
AcDbEntity
  8
cuerpo
 62
     7
420
 16777215
370
    25
100
AcDb2dPolyline
 66
     1
 10
0.0
 20
0.0
 30
0.0
  0
VERTEX
  5
436
330
435
100
AcDbEntity
  8
cuerpo
 62
     7
420
 16777215
370
    25
100
AcDbVertex
100
AcDb2dVertex
 10
169.28076171875
 20
49.2724609375
 30
0.0
  0
VERTEX
  5
437
330
435
100
AcDbEntity
  8
cuerpo
 62
     7
420
 16777215
370
    25
100
AcDbVertex
100
AcDb2dVertex
 10
162.80517578125
 20
49.2724609375
 30
0.0
  0
SEQEND
  5
438
330
435
100
AcDbEntity
  8
cuerpo
370
    25
  0
ENDBLK
  5
434
330
431
100
AcDbEntity
  8
0
100
AcDbBlockEnd
  0
BLOCK
  5
43B
330
439
100
AcDbEntity
  8
0
100
AcDbBlockBegin
  2
block 142
 70
     0
 71
     0
 10
0.0
 20
0.0
 30
0.0
  3
block 142
  1

  0
POLYLINE
  5
43D
330
439
100
AcDbEntity
  8
cuerpo
 62
     7
420
 16777215
370
    25
100
AcDb2dPolyline
 66
     1
 10
0.0
 20
0.0
 30
0.0
  0
VERTEX
  5
43E
330
43D
100
AcDbEntity
  8
cuerpo
 62
     7
420
 16777215
370
    25
100
AcDbVertex
100
AcDb2dVertex
 10
162.80517578125
 20
49.2724609375
 30
0.0
  0
VERTEX
  5
43F
330
43D
100
AcDbEntity
  8
cuerpo
 62
     7
420
 16777215
370
    25
100
AcDbVertex
100
AcDb2dVertex
 10
162.80517578125
 20
66.82421875
 30
0.0
  0
SEQEND
  5
440
330
43D
100
AcDbEntity
  8
cuerpo
370
    25
  0
ENDBLK
  5
43C
330
439
100
AcDbEntity
  8
0
100
AcDbBlockEnd
  0
BLOCK
  5
443
330
441
100
AcDbEntity
  8
0
100
AcDbBlockBegin
  2
block 143
 70
     0
 71
     0
 10
0.0
 20
0.0
 30
0.0
  3
block 143
  1

  0
POLYLINE
  5
445
330
441
100
AcDbEntity
  8
cuerpo
 62
     7
420
 16777215
370
    25
100
AcDb2dPolyline
 66
     1
 10
0.0
 20
0.0
 30
0.0
  0
VERTEX
  5
446
330
445
100
AcDbEntity
  8
cuerpo
 62
     7
420
 16777215
370
    25
100
AcDbVertex
100
AcDb2dVertex
 10
162.80517578125
 20
66.82421875
 30
0.0
  0
VERTEX
  5
447
330
445
100
AcDbEntity
  8
cuerpo
 62
     7
420
 16777215
370
    25
100
AcDbVertex
100
AcDb2dVertex
 10
163.84912109375
 20
67.8681640625
 30
0.0
  0
SEQEND
  5
448
330
445
100
AcDbEntity
  8
cuerpo
370
    25
  0
ENDBLK
  5
444
330
441
100
AcDbEntity
  8
0
100
AcDbBlockEnd
  0
BLOCK
  5
44B
330
449
100
AcDbEntity
  8
0
100
AcDbBlockBegin
  2
block 144
 70
     0
 71
     0
 10
0.0
 20
0.0
 30
0.0
  3
block 144
  1

  0
POLYLINE
  5
44D
330
449
100
AcDbEntity
  8
cuerpo
 62
     7
420
 16777215
370
    25
100
AcDb2dPolyline
 66
     1
 10
0.0
 20
0.0
 30
0.0
  0
VERTEX
  5
44E
330
44D
100
AcDbEntity
  8
cuerpo
 62
     7
420
 16777215
370
    25
100
AcDbVertex
100
AcDb2dVertex
 10
114.884765625
 20
53.224609375
 30
0.0
  0
VERTEX
  5
44F
330
44D
100
AcDbEntity
  8
cuerpo
 62
     7
420
 16777215
370
    25
100
AcDbVertex
100
AcDb2dVertex
 10
114.884765625
 20
88.1943359375
 30
0.0
  0
SEQEND
  5
450
330
44D
100
AcDbEntity
  8
cuerpo
370
    25
  0
ENDBLK
  5
44C
330
449
100
AcDbEntity
  8
0
100
AcDbBlockEnd
  0
BLOCK
  5
453
330
451
100
AcDbEntity
  8
0
100
AcDbBlockBegin
  2
block 145
 70
     0
 71
     0
 10
0.0
 20
0.0
 30
0.0
  3
block 145
  1

  0
SPLINE
  5
455
330
451
100
AcDbEntity
  8
cuerpo
 62
     7
420
 16777215
370
    25
100
AcDbSpline
210
0.0
220
0.0
230
1.0
 70
     8
 71
     3
 72
    11
 73
     7
 74
     0
 42
0.0000000001
 43
0.0000000001
 40
0.0
 40
0.0
 40
0.0
 40
0.0
 40
1.0
 40
1.0
 40
1.0
 40
2.0
 40
2.0
 40
2.0
 40
2.0
 10
96.94775390625
 20
216.0908203125
 30
0.0
 10
92.11962890625
 20
218.4287109375
 30
0.0
 10
86.31005859375
 20
216.41015625
 30
0.0
 10
83.9716796875
 20
211.58203125
 30
0.0
 10
82.63232421875
 20
208.8173828125
 30
0.0
 10
82.68017578125
 20
205.5810546875
 30
0.0
 10
84.10107421875
 20
202.8564453125
 30
0.0
  0
ENDBLK
  5
454
330
451
100
AcDbEntity
  8
0
100
AcDbBlockEnd
  0
BLOCK
  5
458
330
456
100
AcDbEntity
  8
0
100
AcDbBlockBegin
  2
block 146
 70
     0
 71
     0
 10
0.0
 20
0.0
 30
0.0
  3
block 146
  1

  0
SPLINE
  5
45A
330
456
100
AcDbEntity
  8
cuerpo
 62
     7
420
 16777215
370
    25
100
AcDbSpline
210
0.0
220
0.0
230
1.0
 70
     8
 71
     3
 72
    11
 73
     7
 74
     0
 42
0.0000000001
 43
0.0000000001
 40
0.0
 40
0.0
 40
0.0
 40
0.0
 40
1.0
 40
1.0
 40
1.0
 40
2.0
 40
2.0
 40
2.0
 40
2.0
 10
84.10107421875
 20
75.201171875
 30
0.0
 10
81.62060546875
 20
70.4443359375
 30
0.0
 10
83.46533203125
 20
64.5771484375
 30
0.0
 10
88.22216796875
 20
62.0966796875
 30
0.0
 10
90.94677734375
 20
60.67578125
 30
0.0
 10
94.1826171875
 20
60.6279296875
 30
0.0
 10
96.94775390625
 20
61.9677734375
 30
0.0
  0
ENDBLK
  5
459
330
456
100
AcDbEntity
  8
0
100
AcDbBlockEnd
  0
BLOCK
  5
45E
330
45C
100
AcDbEntity
  8
0
100
AcDbBlockBegin
  2
block 147
 70
     0
 71
     0
 10
0.0
 20
0.0
 30
0.0
  3
block 147
  1

  0
INSERT
  5
461
330
45C
100
AcDbEntity
  8
cotas
100
AcDbBlockReference
  2
block 148
 10
0.0
 20
0.0
 30
0.0
  0
INSERT
  5
469
330
45C
100
AcDbEntity
  8
cotas
100
AcDbBlockReference
  2
block 149
 10
0.0
 20
0.0
 30
0.0
  0
INSERT
  5
471
330
45C
100
AcDbEntity
  8
cotas
100
AcDbBlockReference
  2
block 150
 10
0.0
 20
0.0
 30
0.0
  0
INSERT
  5
479
330
45C
100
AcDbEntity
  8
cotas
100
AcDbBlockReference
  2
block 151
 10
0.0
 20
0.0
 30
0.0
  0
INSERT
  5
481
330
45C
100
AcDbEntity
  8
cotas
100
AcDbBlockReference
  2
block 152
 10
0.0
 20
0.0
 30
0.0
  0
INSERT
  5
48C
330
45C
100
AcDbEntity
  8
cotas
100
AcDbBlockReference
  2
block 153
 10
0.0
 20
0.0
 30
0.0
  0
INSERT
  5
497
330
45C
100
AcDbEntity
  8
cotas
100
AcDbBlockReference
  2
block 154
 10
0.0
 20
0.0
 30
0.0
  0
INSERT
  5
49C
330
45C
100
AcDbEntity
  8
cotas
100
AcDbBlockReference
  2
block 155
 10
0.0
 20
0.0
 30
0.0
  0
INSERT
  5
4A4
330
45C
100
AcDbEntity
  8
cotas
100
AcDbBlockReference
  2
block 156
 10
0.0
 20
0.0
 30
0.0
  0
INSERT
  5
4AC
330
45C
100
AcDbEntity
  8
cotas
100
AcDbBlockReference
  2
block 157
 10
0.0
 20
0.0
 30
0.0
  0
ENDBLK
  5
45F
330
45C
100
AcDbEntity
  8
0
100
AcDbBlockEnd
  0
BLOCK
  5
462
330
460
100
AcDbEntity
  8
0
100
AcDbBlockBegin
  2
block 148
 70
     0
 71
     0
 10
0.0
 20
0.0
 30
0.0
  3
block 148
  1

  0
POLYLINE
  5
464
330
460
100
AcDbEntity
  8
cotas
 62
   253
420
 11382189
370
    25
100
AcDb2dPolyline
 66
     1
 10
0.0
 20
0.0
 30
0.0
  0
VERTEX
  5
465
330
464
100
AcDbEntity
  8
cotas
 62
   253
420
 11382189
370
    25
100
AcDbVertex
100
AcDb2dVertex
 10
267.591796875
 20
145.5048828125
 30
0.0
  0
VERTEX
  5
466
330
464
100
AcDbEntity
  8
cotas
 62
   253
420
 11382189
370
    25
100
AcDbVertex
100
AcDb2dVertex
 10
267.591796875
 20
247.5205078125
 30
0.0
  0
SEQEND
  5
467
330
464
100
AcDbEntity
  8
cotas
370
    25
  0
ENDBLK
  5
463
330
460
100
AcDbEntity
  8
0
100
AcDbBlockEnd
  0
BLOCK
  5
46A
330
468
100
AcDbEntity
  8
0
100
AcDbBlockBegin
  2
block 149
 70
     0
 71
     0
 10
0.0
 20
0.0
 30
0.0
  3
block 149
  1

  0
POLYLINE
  5
46C
330
468
100
AcDbEntity
  8
cotas
 62
   253
420
 11382189
370
    25
100
AcDb2dPolyline
 66
     1
 10
0.0
 20
0.0
 30
0.0
  0
VERTEX
  5
46D
330
46C
100
AcDbEntity
  8
cotas
 62
   253
420
 11382189
370
    25
100
AcDbVertex
100
AcDb2dVertex
 10
92.74609375
 20
222.5654296875
 30
0.0
  0
VERTEX
  5
46E
330
46C
100
AcDbEntity
  8
cotas
 62
   253
420
 11382189
370
    25
100
AcDbVertex
100
AcDb2dVertex
 10
92.74609375
 20
247.5205078125
 30
0.0
  0
SEQEND
  5
46F
330
46C
100
AcDbEntity
  8
cotas
370
    25
  0
ENDBLK
  5
46B
330
468
100
AcDbEntity
  8
0
100
AcDbBlockEnd
  0
BLOCK
  5
472
330
470
100
AcDbEntity
  8
0
100
AcDbBlockBegin
  2
block 150
 70
     0
 71
     0
 10
0.0
 20
0.0
 30
0.0
  3
block 150
  1

  0
POLYLINE
  5
474
330
470
100
AcDbEntity
  8
cotas
 62
   253
420
 11382189
370
    25
100
AcDb2dPolyline
 66
     1
 10
0.0
 20
0.0
 30
0.0
  0
VERTEX
  5
475
330
474
100
AcDbEntity
  8
cotas
 62
   253
420
 11382189
370
    25
100
AcDbVertex
100
AcDb2dVertex
 10
263.05859375
 20
244.2822265625
 30
0.0
  0
VERTEX
  5
476
330
474
100
AcDbEntity
  8
cotas
 62
   253
420
 11382189
370
    25
100
AcDbVertex
100
AcDb2dVertex
 10
197.44140625
 20
244.2822265625
 30
0.0
  0
SEQEND
  5
477
330
474
100
AcDbEntity
  8
cotas
370
    25
  0
ENDBLK
  5
473
330
470
100
AcDbEntity
  8
0
100
AcDbBlockEnd
  0
BLOCK
  5
47A
330
478
100
AcDbEntity
  8
0
100
AcDbBlockBegin
  2
block 151
 70
     0
 71
     0
 10
0.0
 20
0.0
 30
0.0
  3
block 151
  1

  0
POLYLINE
  5
47C
330
478
100
AcDbEntity
  8
cotas
 62
   253
420
 11382189
370
    25
100
AcDb2dPolyline
 66
     1
 10
0.0
 20
0.0
 30
0.0
  0
VERTEX
  5
47D
330
47C
100
AcDbEntity
  8
cotas
 62
   253
420
 11382189
370
    25
100
AcDbVertex
100
AcDb2dVertex
 10
97.279296875
 20
244.2822265625
 30
0.0
  0
VERTEX
  5
47E
330
47C
100
AcDbEntity
  8
cotas
 62
   253
420
 11382189
370
    25
100
AcDbVertex
100
AcDb2dVertex
 10
162.89599609375
 20
244.2822265625
 30
0.0
  0
SEQEND
  5
47F
330
47C
100
AcDbEntity
  8
cotas
370
    25
  0
ENDBLK
  5
47B
330
478
100
AcDbEntity
  8
0
100
AcDbBlockEnd
  0
BLOCK
  5
482
330
480
100
AcDbEntity
  8
0
100
AcDbBlockBegin
  2
block 152
 70
     0
 71
     0
 10
0.0
 20
0.0
 30
0.0
  3
block 152
  1

  0
POLYLINE
  5
484
330
480
100
AcDbEntity
  8
cotas
370
     0
100
AcDb2dPolyline
 66
     1
 10
0.0
 20
0.0
 30
0.0
  0
VERTEX
  5
485
330
484
100
AcDbEntity
  8
cotas
370
     0
100
AcDbVertex
100
AcDb2dVertex
 10
263.05859375
 20
245.0380859375
 30
0.0
  0
VERTEX
  5
486
330
484
100
AcDbEntity
  8
cotas
370
     0
100
AcDbVertex
100
AcDb2dVertex
 10
263.05859375
 20
243.5263671875
 30
0.0
  0
VERTEX
  5
487
330
484
100
AcDbEntity
  8
cotas
370
     0
100
AcDbVertex
100
AcDb2dVertex
 10
267.591796875
 20
244.2822265625
 30
0.0
  0
VERTEX
  5
488
330
484
100
AcDbEntity
  8
cotas
370
     0
100
AcDbVertex
100
AcDb2dVertex
 10
263.05859375
 20
245.0380859375
 30
0.0
  0
SEQEND
  5
489
330
484
100
AcDbEntity
  8
cotas
370
     0
  0
HATCH
  5
48A
330
480
100
AcDbEntity
  8
cotas
 62
   253
420
 11382189
100
AcDbHatch
 10
0.0
 20
0.0
 30
0.0
210
0.0
220
0.0
230
1.0
  2
SOLID
 70
     1
 71
     0
 91
        1
 92
        1
 93
        3
 72
     1
 10
263.05859375
 20
245.0380859375
 11
263.05859375
 21
243.5263671875
 72
     1
 10
263.05859375
 20
243.5263671875
 11
267.591796875
 21
244.2822265625
 72
     1
 10
267.591796875
 20
244.2822265625
 11
263.05859375
 21
245.0380859375
 97
        0
 75
     2
 76
     1
 98
        0
  0
ENDBLK
  5
483
330
480
100
AcDbEntity
  8
0
100
AcDbBlockEnd
  0
BLOCK
  5
48D
330
48B
100
AcDbEntity
  8
0
100
AcDbBlockBegin
  2
block 153
 70
     0
 71
     0
 10
0.0
 20
0.0
 30
0.0
  3
block 153
  1

  0
POLYLINE
  5
48F
330
48B
100
AcDbEntity
  8
cotas
370
     0
100
AcDb2dPolyline
 66
     1
 10
0.0
 20
0.0
 30
0.0
  0
VERTEX
  5
490
330
48F
100
AcDbEntity
  8
cotas
370
     0
100
AcDbVertex
100
AcDb2dVertex
 10
97.279296875
 20
245.0380859375
 30
0.0
  0
VERTEX
  5
491
330
48F
100
AcDbEntity
  8
cotas
370
     0
100
AcDbVertex
100
AcDb2dVertex
 10
97.279296875
 20
243.5263671875
 30
0.0
  0
VERTEX
  5
492
330
48F
100
AcDbEntity
  8
cotas
370
     0
100
AcDbVertex
100
AcDb2dVertex
 10
92.74609375
 20
244.2822265625
 30
0.0
  0
VERTEX
  5
493
330
48F
100
AcDbEntity
  8
cotas
370
     0
100
AcDbVertex
100
AcDb2dVertex
 10
97.279296875
 20
245.0380859375
 30
0.0
  0
SEQEND
  5
494
330
48F
100
AcDbEntity
  8
cotas
370
     0
  0
HATCH
  5
495
330
48B
100
AcDbEntity
  8
cotas
 62
   253
420
 11382189
100
AcDbHatch
 10
0.0
 20
0.0
 30
0.0
210
0.0
220
0.0
230
1.0
  2
SOLID
 70
     1
 71
     0
 91
        1
 92
        1
 93
        3
 72
     1
 10
97.279296875
 20
245.0380859375
 11
97.279296875
 21
243.5263671875
 72
     1
 10
97.279296875
 20
243.5263671875
 11
92.74609375
 21
244.2822265625
 72
     1
 10
92.74609375
 20
244.2822265625
 11
97.279296875
 21
245.0380859375
 97
        0
 75
     2
 76
     1
 98
        0
  0
ENDBLK
  5
48E
330
48B
100
AcDbEntity
  8
0
100
AcDbBlockEnd
  0
BLOCK
  5
498
330
496
100
AcDbEntity
  8
0
100
AcDbBlockBegin
  2
block 154
 70
     0
 71
     0
 10
0.0
 20
0.0
 30
0.0
  3
block 154
  1

  0
MTEXT
  5
49A
330
496
100
AcDbEntity
  8
cotas
 62
   253
420
 11382189
100
AcDbMText
 10
168.98876953125
 20
239.48828125
 30
0.0
 40
9.713628692626953
 41
0.0
 71
     7
 72
     1
  1
\fArial|b0|i0|c0|p34;\W1;270
 73
     1
 44
1.0
  0
ENDBLK
  5
499
330
496
100
AcDbEntity
  8
0
100
AcDbBlockEnd
  0
BLOCK
  5
49D
330
49B
100
AcDbEntity
  8
0
100
AcDbBlockBegin
  2
block 155
 70
     0
 71
     0
 10
0.0
 20
0.0
 30
0.0
  3
block 155
  1

  0
POLYLINE
  5
49F
330
49B
100
AcDbEntity
  8
cotas
 62
   253
420
 11382189
370
    25
100
AcDb2dPolyline
 66
     1
 10
0.0
 20
0.0
 30
0.0
  0
VERTEX
  5
4A0
330
49F
100
AcDbEntity
  8
cotas
 62
   253
420
 11382189
370
    25
100
AcDbVertex
100
AcDb2dVertex
 10
267.591796875
 20
139.0283203125
 30
0.0
  0
VERTEX
  5
4A1
330
49F
100
AcDbEntity
  8
cotas
 62
   253
420
 11382189
370
    25
100
AcDbVertex
100
AcDb2dVertex
 10
267.591796875
 20
139.0283203125
 30
0.0
  0
SEQEND
  5
4A2
330
49F
100
AcDbEntity
  8
cotas
370
    25
  0
ENDBLK
  5
49E
330
49B
100
AcDbEntity
  8
0
100
AcDbBlockEnd
  0
BLOCK
  5
4A5
330
4A3
100
AcDbEntity
  8
0
100
AcDbBlockBegin
  2
block 156
 70
     0
 71
     0
 10
0.0
 20
0.0
 30
0.0
  3
block 156
  1

  0
POLYLINE
  5
4A7
330
4A3
100
AcDbEntity
  8
cotas
 62
   253
420
 11382189
370
    25
100
AcDb2dPolyline
 66
     1
 10
0.0
 20
0.0
 30
0.0
  0
VERTEX
  5
4A8
330
4A7
100
AcDbEntity
  8
cotas
 62
   253
420
 11382189
370
    25
100
AcDbVertex
100
AcDb2dVertex
 10
92.74609375
 20
216.0908203125
 30
0.0
  0
VERTEX
  5
4A9
330
4A7
100
AcDbEntity
  8
cotas
 62
   253
420
 11382189
370
    25
100
AcDbVertex
100
AcDb2dVertex
 10
92.74609375
 20
216.0908203125
 30
0.0
  0
SEQEND
  5
4AA
330
4A7
100
AcDbEntity
  8
cotas
370
    25
  0
ENDBLK
  5
4A6
330
4A3
100
AcDbEntity
  8
0
100
AcDbBlockEnd
  0
BLOCK
  5
4AD
330
4AB
100
AcDbEntity
  8
0
100
AcDbBlockBegin
  2
block 157
 70
     0
 71
     0
 10
0.0
 20
0.0
 30
0.0
  3
block 157
  1

  0
POLYLINE
  5
4AF
330
4AB
100
AcDbEntity
  8
cotas
 62
   253
420
 11382189
370
    25
100
AcDb2dPolyline
 66
     1
 10
0.0
 20
0.0
 30
0.0
  0
VERTEX
  5
4B0
330
4AF
100
AcDbEntity
  8
cotas
 62
   253
420
 11382189
370
    25
100
AcDbVertex
100
AcDb2dVertex
 10
92.74609375
 20
244.2822265625
 30
0.0
  0
VERTEX
  5
4B1
330
4AF
100
AcDbEntity
  8
cotas
 62
   253
420
 11382189
370
    25
100
AcDbVertex
100
AcDb2dVertex
 10
92.74609375
 20
244.2822265625
 30
0.0
  0
SEQEND
  5
4B2
330
4AF
100
AcDbEntity
  8
cotas
370
    25
  0
ENDBLK
  5
4AE
330
4AB
100
AcDbEntity
  8
0
100
AcDbBlockEnd
  0
BLOCK
  5
4B5
330
4B3
100
AcDbEntity
  8
0
100
AcDbBlockBegin
  2
block 158
 70
     0
 71
     0
 10
0.0
 20
0.0
 30
0.0
  3
block 158
  1

  0
INSERT
  5
4B8
330
4B3
100
AcDbEntity
  8
cotas
100
AcDbBlockReference
  2
block 159
 10
0.0
 20
0.0
 30
0.0
  0
INSERT
  5
4C0
330
4B3
100
AcDbEntity
  8
cotas
100
AcDbBlockReference
  2
block 160
 10
0.0
 20
0.0
 30
0.0
  0
INSERT
  5
4C8
330
4B3
100
AcDbEntity
  8
cotas
100
AcDbBlockReference
  2
block 161
 10
0.0
 20
0.0
 30
0.0
  0
INSERT
  5
4D0
330
4B3
100
AcDbEntity
  8
cotas
100
AcDbBlockReference
  2
block 162
 10
0.0
 20
0.0
 30
0.0
  0
INSERT
  5
4D8
330
4B3
100
AcDbEntity
  8
cotas
100
AcDbBlockReference
  2
block 163
 10
0.0
 20
0.0
 30
0.0
  0
INSERT
  5
4E3
330
4B3
100
AcDbEntity
  8
cotas
100
AcDbBlockReference
  2
block 164
 10
0.0
 20
0.0
 30
0.0
  0
INSERT
  5
4EE
330
4B3
100
AcDbEntity
  8
cotas
100
AcDbBlockReference
  2
block 165
 10
0.0
 20
0.0
 30
0.0
  0
INSERT
  5
4F3
330
4B3
100
AcDbEntity
  8
cotas
100
AcDbBlockReference
  2
block 166
 10
0.0
 20
0.0
 30
0.0
  0
INSERT
  5
4FB
330
4B3
100
AcDbEntity
  8
cotas
100
AcDbBlockReference
  2
block 167
 10
0.0
 20
0.0
 30
0.0
  0
INSERT
  5
503
330
4B3
100
AcDbEntity
  8
cotas
100
AcDbBlockReference
  2
block 168
 10
0.0
 20
0.0
 30
0.0
  0
ENDBLK
  5
4B6
330
4B3
100
AcDbEntity
  8
0
100
AcDbBlockEnd
  0
BLOCK
  5
4B9
330
4B7
100
AcDbEntity
  8
0
100
AcDbBlockBegin
  2
block 159
 70
     0
 71
     0
 10
0.0
 20
0.0
 30
0.0
  3
block 159
  1

  0
POLYLINE
  5
4BB
330
4B7
100
AcDbEntity
  8
cotas
 62
   253
420
 11382189
370
    25
100
AcDb2dPolyline
 66
     1
 10
0.0
 20
0.0
 30
0.0
  0
VERTEX
  5
4BC
330
4BB
100
AcDbEntity
  8
cotas
 62
   253
420
 11382189
370
    25
100
AcDbVertex
100
AcDb2dVertex
 10
175.7568359375
 20
207.4150390625
 30
0.0
  0
VERTEX
  5
4BD
330
4BB
100
AcDbEntity
  8
cotas
 62
   253
420
 11382189
370
    25
100
AcDbVertex
100
AcDb2dVertex
 10
308.1015625
 20
207.4150390625
 30
0.0
  0
SEQEND
  5
4BE
330
4BB
100
AcDbEntity
  8
cotas
370
    25
  0
ENDBLK
  5
4BA
330
4B7
100
AcDbEntity
  8
0
100
AcDbBlockEnd
  0
BLOCK
  5
4C1
330
4BF
100
AcDbEntity
  8
0
100
AcDbBlockBegin
  2
block 160
 70
     0
 71
     0
 10
0.0
 20
0.0
 30
0.0
  3
block 160
  1

  0
POLYLINE
  5
4C3
330
4BF
100
AcDbEntity
  8
cotas
 62
   253
420
 11382189
370
    25
100
AcDb2dPolyline
 66
     1
 10
0.0
 20
0.0
 30
0.0
  0
VERTEX
  5
4C4
330
4C3
100
AcDbEntity
  8
cotas
 62
   253
420
 11382189
370
    25
100
AcDbVertex
100
AcDb2dVertex
 10
175.7568359375
 20
70.642578125
 30
0.0
  0
VERTEX
  5
4C5
330
4C3
100
AcDbEntity
  8
cotas
 62
   253
420
 11382189
370
    25
100
AcDbVertex
100
AcDb2dVertex
 10
308.1015625
 20
70.642578125
 30
0.0
  0
SEQEND
  5
4C6
330
4C3
100
AcDbEntity
  8
cotas
370
    25
  0
ENDBLK
  5
4C2
330
4BF
100
AcDbEntity
  8
0
100
AcDbBlockEnd
  0
BLOCK
  5
4C9
330
4C7
100
AcDbEntity
  8
0
100
AcDbBlockBegin
  2
block 161
 70
     0
 71
     0
 10
0.0
 20
0.0
 30
0.0
  3
block 161
  1

  0
POLYLINE
  5
4CB
330
4C7
100
AcDbEntity
  8
cotas
 62
   253
420
 11382189
370
    25
100
AcDb2dPolyline
 66
     1
 10
0.0
 20
0.0
 30
0.0
  0
VERTEX
  5
4CC
330
4CB
100
AcDbEntity
  8
cotas
 62
   253
420
 11382189
370
    25
100
AcDbVertex
100
AcDb2dVertex
 10
304.8642578125
 20
202.8818359375
 30
0.0
  0
VERTEX
  5
4CD
330
4CB
100
AcDbEntity
  8
cotas
 62
   253
420
 11382189
370
    25
100
AcDbVertex
100
AcDb2dVertex
 10
304.8642578125
 20
151.0068359375
 30
0.0
  0
SEQEND
  5
4CE
330
4CB
100
AcDbEntity
  8
cotas
370
    25
  0
ENDBLK
  5
4CA
330
4C7
100
AcDbEntity
  8
0
100
AcDbBlockEnd
  0
BLOCK
  5
4D1
330
4CF
100
AcDbEntity
  8
0
100
AcDbBlockBegin
  2
block 162
 70
     0
 71
     0
 10
0.0
 20
0.0
 30
0.0
  3
block 162
  1

  0
POLYLINE
  5
4D3
330
4CF
100
AcDbEntity
  8
cotas
 62
   253
420
 11382189
370
    25
100
AcDb2dPolyline
 66
     1
 10
0.0
 20
0.0
 30
0.0
  0
VERTEX
  5
4D4
330
4D3
100
AcDbEntity
  8
cotas
 62
   253
420
 11382189
370
    25
100
AcDbVertex
100
AcDb2dVertex
 10
304.8642578125
 20
75.17578125
 30
0.0
  0
VERTEX
  5
4D5
330
4D3
100
AcDbEntity
  8
cotas
 62
   253
420
 11382189
370
    25
100
AcDbVertex
100
AcDb2dVertex
 10
304.8642578125
 20
128.341796875
 30
0.0
  0
SEQEND
  5
4D6
330
4D3
100
AcDbEntity
  8
cotas
370
    25
  0
ENDBLK
  5
4D2
330
4CF
100
AcDbEntity
  8
0
100
AcDbBlockEnd
  0
BLOCK
  5
4D9
330
4D7
100
AcDbEntity
  8
0
100
AcDbBlockBegin
  2
block 163
 70
     0
 71
     0
 10
0.0
 20
0.0
 30
0.0
  3
block 163
  1

  0
POLYLINE
  5
4DB
330
4D7
100
AcDbEntity
  8
cotas
370
     0
100
AcDb2dPolyline
 66
     1
 10
0.0
 20
0.0
 30
0.0
  0
VERTEX
  5
4DC
330
4DB
100
AcDbEntity
  8
cotas
370
     0
100
AcDbVertex
100
AcDb2dVertex
 10
304.1083984375
 20
202.8818359375
 30
0.0
  0
VERTEX
  5
4DD
330
4DB
100
AcDbEntity
  8
cotas
370
     0
100
AcDbVertex
100
AcDb2dVertex
 10
305.619140625
 20
202.8818359375
 30
0.0
  0
VERTEX
  5
4DE
330
4DB
100
AcDbEntity
  8
cotas
370
     0
100
AcDbVertex
100
AcDb2dVertex
 10
304.8642578125
 20
207.4150390625
 30
0.0
  0
VERTEX
  5
4DF
330
4DB
100
AcDbEntity
  8
cotas
370
     0
100
AcDbVertex
100
AcDb2dVertex
 10
304.1083984375
 20
202.8818359375
 30
0.0
  0
SEQEND
  5
4E0
330
4DB
100
AcDbEntity
  8
cotas
370
     0
  0
HATCH
  5
4E1
330
4D7
100
AcDbEntity
  8
cotas
 62
   253
420
 11382189
100
AcDbHatch
 10
0.0
 20
0.0
 30
0.0
210
0.0
220
0.0
230
1.0
  2
SOLID
 70
     1
 71
     0
 91
        1
 92
        1
 93
        3
 72
     1
 10
304.1083984375
 20
202.8818359375
 11
305.619140625
 21
202.8818359375
 72
     1
 10
305.619140625
 20
202.8818359375
 11
304.8642578125
 21
207.4150390625
 72
     1
 10
304.8642578125
 20
207.4150390625
 11
304.1083984375
 21
202.8818359375
 97
        0
 75
     2
 76
     1
 98
        0
  0
ENDBLK
  5
4DA
330
4D7
100
AcDbEntity
  8
0
100
AcDbBlockEnd
  0
BLOCK
  5
4E4
330
4E2
100
AcDbEntity
  8
0
100
AcDbBlockBegin
  2
block 164
 70
     0
 71
     0
 10
0.0
 20
0.0
 30
0.0
  3
block 164
  1

  0
POLYLINE
  5
4E6
330
4E2
100
AcDbEntity
  8
cotas
370
     0
100
AcDb2dPolyline
 66
     1
 10
0.0
 20
0.0
 30
0.0
  0
VERTEX
  5
4E7
330
4E6
100
AcDbEntity
  8
cotas
370
     0
100
AcDbVertex
100
AcDb2dVertex
 10
304.1083984375
 20
75.17578125
 30
0.0
  0
VERTEX
  5
4E8
330
4E6
100
AcDbEntity
  8
cotas
370
     0
100
AcDbVertex
100
AcDb2dVertex
 10
305.619140625
 20
75.17578125
 30
0.0
  0
VERTEX
  5
4E9
330
4E6
100
AcDbEntity
  8
cotas
370
     0
100
AcDbVertex
100
AcDb2dVertex
 10
304.8642578125
 20
70.642578125
 30
0.0
  0
VERTEX
  5
4EA
330
4E6
100
AcDbEntity
  8
cotas
370
     0
100
AcDbVertex
100
AcDb2dVertex
 10
304.1083984375
 20
75.17578125
 30
0.0
  0
SEQEND
  5
4EB
330
4E6
100
AcDbEntity
  8
cotas
370
     0
  0
HATCH
  5
4EC
330
4E2
100
AcDbEntity
  8
cotas
 62
   253
420
 11382189
100
AcDbHatch
 10
0.0
 20
0.0
 30
0.0
210
0.0
220
0.0
230
1.0
  2
SOLID
 70
     1
 71
     0
 91
        1
 92
        1
 93
        3
 72
     1
 10
304.1083984375
 20
75.17578125
 11
305.619140625
 21
75.17578125
 72
     1
 10
305.619140625
 20
75.17578125
 11
304.8642578125
 21
70.642578125
 72
     1
 10
304.8642578125
 20
70.642578125
 11
304.1083984375
 21
75.17578125
 97
        0
 75
     2
 76
     1
 98
        0
  0
ENDBLK
  5
4E5
330
4E2
100
AcDbEntity
  8
0
100
AcDbBlockEnd
  0
BLOCK
  5
4EF
330
4ED
100
AcDbEntity
  8
0
100
AcDbBlockBegin
  2
block 165
 70
     0
 71
     0
 10
0.0
 20
0.0
 30
0.0
  3
block 165
  1

  0
MTEXT
  5
4F1
330
4ED
100
AcDbEntity
  8
cotas
 62
   253
420
 11382189
100
AcDbMText
 10
280.119140625
 20
134.880859375
 30
0.0
 40
9.713628692626953
 41
0.0
 71
     7
 72
     1
  1
\fArial|b0|i0|c0|p34;\W1;210-230
 73
     1
 44
1.0
  0
ENDBLK
  5
4F0
330
4ED
100
AcDbEntity
  8
0
100
AcDbBlockEnd
  0
BLOCK
  5
4F4
330
4F2
100
AcDbEntity
  8
0
100
AcDbBlockBegin
  2
block 166
 70
     0
 71
     0
 10
0.0
 20
0.0
 30
0.0
  3
block 166
  1

  0
POLYLINE
  5
4F6
330
4F2
100
AcDbEntity
  8
cotas
 62
   253
420
 11382189
370
    25
100
AcDb2dPolyline
 66
     1
 10
0.0
 20
0.0
 30
0.0
  0
VERTEX
  5
4F7
330
4F6
100
AcDbEntity
  8
cotas
 62
   253
420
 11382189
370
    25
100
AcDbVertex
100
AcDb2dVertex
 10
169.28076171875
 20
207.4150390625
 30
0.0
  0
VERTEX
  5
4F8
330
4F6
100
AcDbEntity
  8
cotas
 62
   253
420
 11382189
370
    25
100
AcDbVertex
100
AcDb2dVertex
 10
169.28076171875
 20
207.4150390625
 30
0.0
  0
SEQEND
  5
4F9
330
4F6
100
AcDbEntity
  8
cotas
370
    25
  0
ENDBLK
  5
4F5
330
4F2
100
AcDbEntity
  8
0
100
AcDbBlockEnd
  0
BLOCK
  5
4FC
330
4FA
100
AcDbEntity
  8
0
100
AcDbBlockBegin
  2
block 167
 70
     0
 71
     0
 10
0.0
 20
0.0
 30
0.0
  3
block 167
  1

  0
POLYLINE
  5
4FE
330
4FA
100
AcDbEntity
  8
cotas
 62
   253
420
 11382189
370
    25
100
AcDb2dPolyline
 66
     1
 10
0.0
 20
0.0
 30
0.0
  0
VERTEX
  5
4FF
330
4FE
100
AcDbEntity
  8
cotas
 62
   253
420
 11382189
370
    25
100
AcDbVertex
100
AcDb2dVertex
 10
169.28076171875
 20
70.642578125
 30
0.0
  0
VERTEX
  5
500
330
4FE
100
AcDbEntity
  8
cotas
 62
   253
420
 11382189
370
    25
100
AcDbVertex
100
AcDb2dVertex
 10
169.28076171875
 20
70.642578125
 30
0.0
  0
SEQEND
  5
501
330
4FE
100
AcDbEntity
  8
cotas
370
    25
  0
ENDBLK
  5
4FD
330
4FA
100
AcDbEntity
  8
0
100
AcDbBlockEnd
  0
BLOCK
  5
504
330
502
100
AcDbEntity
  8
0
100
AcDbBlockBegin
  2
block 168
 70
     0
 71
     0
 10
0.0
 20
0.0
 30
0.0
  3
block 168
  1

  0
POLYLINE
  5
506
330
502
100
AcDbEntity
  8
cotas
 62
   253
420
 11382189
370
    25
100
AcDb2dPolyline
 66
     1
 10
0.0
 20
0.0
 30
0.0
  0
VERTEX
  5
507
330
506
100
AcDbEntity
  8
cotas
 62
   253
420
 11382189
370
    25
100
AcDbVertex
100
AcDb2dVertex
 10
304.8642578125
 20
70.642578125
 30
0.0
  0
VERTEX
  5
508
330
506
100
AcDbEntity
  8
cotas
 62
   253
420
 11382189
370
    25
100
AcDbVertex
100
AcDb2dVertex
 10
304.8642578125
 20
70.642578125
 30
0.0
  0
SEQEND
  5
509
330
506
100
AcDbEntity
  8
cotas
370
    25
  0
ENDBLK
  5
505
330
502
100
AcDbEntity
  8
0
100
AcDbBlockEnd
  0
BLOCK
  5
50C
330
50A
100
AcDbEntity
  8
0
100
AcDbBlockBegin
  2
block 169
 70
     0
 71
     0
 10
0.0
 20
0.0
 30
0.0
  3
block 169
  1

  0
INSERT
  5
50F
330
50A
100
AcDbEntity
  8
cotas
100
AcDbBlockReference
  2
block 170
 10
0.0
 20
0.0
 30
0.0
  0
INSERT
  5
517
330
50A
100
AcDbEntity
  8
cotas
100
AcDbBlockReference
  2
block 171
 10
0.0
 20
0.0
 30
0.0
  0
INSERT
  5
51F
330
50A
100
AcDbEntity
  8
cotas
100
AcDbBlockReference
  2
block 172
 10
0.0
 20
0.0
 30
0.0
  0
INSERT
  5
527
330
50A
100
AcDbEntity
  8
cotas
100
AcDbBlockReference
  2
block 173
 10
0.0
 20
0.0
 30
0.0
  0
INSERT
  5
52F
330
50A
100
AcDbEntity
  8
cotas
100
AcDbBlockReference
  2
block 174
 10
0.0
 20
0.0
 30
0.0
  0
INSERT
  5
53A
330
50A
100
AcDbEntity
  8
cotas
100
AcDbBlockReference
  2
block 175
 10
0.0
 20
0.0
 30
0.0
  0
INSERT
  5
545
330
50A
100
AcDbEntity
  8
cotas
100
AcDbBlockReference
  2
block 176
 10
0.0
 20
0.0
 30
0.0
  0
INSERT
  5
54A
330
50A
100
AcDbEntity
  8
cotas
100
AcDbBlockReference
  2
block 177
 10
0.0
 20
0.0
 30
0.0
  0
INSERT
  5
552
330
50A
100
AcDbEntity
  8
cotas
100
AcDbBlockReference
  2
block 178
 10
0.0
 20
0.0
 30
0.0
  0
INSERT
  5
55A
330
50A
100
AcDbEntity
  8
cotas
100
AcDbBlockReference
  2
block 179
 10
0.0
 20
0.0
 30
0.0
  0
ENDBLK
  5
50D
330
50A
100
AcDbEntity
  8
0
100
AcDbBlockEnd
  0
BLOCK
  5
510
330
50E
100
AcDbEntity
  8
0
100
AcDbBlockBegin
  2
block 170
 70
     0
 71
     0
 10
0.0
 20
0.0
 30
0.0
  3
block 170
  1

  0
POLYLINE
  5
512
330
50E
100
AcDbEntity
  8
cotas
 62
   253
420
 11382189
370
    25
100
AcDb2dPolyline
 66
     1
 10
0.0
 20
0.0
 30
0.0
  0
VERTEX
  5
513
330
512
100
AcDbEntity
  8
cotas
 62
   253
420
 11382189
370
    25
100
AcDbVertex
100
AcDb2dVertex
 10
92.7138671875
 20
55.4912109375
 30
0.0
  0
VERTEX
  5
514
330
512
100
AcDbEntity
  8
cotas
 62
   253
420
 11382189
370
    25
100
AcDbVertex
100
AcDb2dVertex
 10
92.7138671875
 20
31.6708984375
 30
0.0
  0
SEQEND
  5
515
330
512
100
AcDbEntity
  8
cotas
370
    25
  0
ENDBLK
  5
511
330
50E
100
AcDbEntity
  8
0
100
AcDbBlockEnd
  0
BLOCK
  5
518
330
516
100
AcDbEntity
  8
0
100
AcDbBlockBegin
  2
block 171
 70
     0
 71
     0
 10
0.0
 20
0.0
 30
0.0
  3
block 171
  1

  0
POLYLINE
  5
51A
330
516
100
AcDbEntity
  8
cotas
 62
   253
420
 11382189
370
    25
100
AcDb2dPolyline
 66
     1
 10
0.0
 20
0.0
 30
0.0
  0
VERTEX
  5
51B
330
51A
100
AcDbEntity
  8
cotas
 62
   253
420
 11382189
370
    25
100
AcDbVertex
100
AcDb2dVertex
 10
114.884765625
 20
46.6240234375
 30
0.0
  0
VERTEX
  5
51C
330
51A
100
AcDbEntity
  8
cotas
 62
   253
420
 11382189
370
    25
100
AcDbVertex
100
AcDb2dVertex
 10
114.884765625
 20
31.6708984375
 30
0.0
  0
SEQEND
  5
51D
330
51A
100
AcDbEntity
  8
cotas
370
    25
  0
ENDBLK
  5
519
330
516
100
AcDbEntity
  8
0
100
AcDbBlockEnd
  0
BLOCK
  5
520
330
51E
100
AcDbEntity
  8
0
100
AcDbBlockBegin
  2
block 172
 70
     0
 71
     0
 10
0.0
 20
0.0
 30
0.0
  3
block 172
  1

  0
POLYLINE
  5
522
330
51E
100
AcDbEntity
  8
cotas
 62
   253
420
 11382189
370
    25
100
AcDb2dPolyline
 66
     1
 10
0.0
 20
0.0
 30
0.0
  0
VERTEX
  5
523
330
522
100
AcDbEntity
  8
cotas
 62
   253
420
 11382189
370
    25
100
AcDbVertex
100
AcDb2dVertex
 10
97.2470703125
 20
34.9091796875
 30
0.0
  0
VERTEX
  5
524
330
522
100
AcDbEntity
  8
cotas
 62
   253
420
 11382189
370
    25
100
AcDbVertex
100
AcDb2dVertex
 10
110.3515625
 20
34.9091796875
 30
0.0
  0
SEQEND
  5
525
330
522
100
AcDbEntity
  8
cotas
370
    25
  0
ENDBLK
  5
521
330
51E
100
AcDbEntity
  8
0
100
AcDbBlockEnd
  0
BLOCK
  5
528
330
526
100
AcDbEntity
  8
0
100
AcDbBlockBegin
  2
block 173
 70
     0
 71
     0
 10
0.0
 20
0.0
 30
0.0
  3
block 173
  1

  0
POLYLINE
  5
52A
330
526
100
AcDbEntity
  8
cotas
 62
   253
420
 11382189
370
    25
100
AcDb2dPolyline
 66
     1
 10
0.0
 20
0.0
 30
0.0
  0
VERTEX
  5
52B
330
52A
100
AcDbEntity
  8
cotas
 62
   253
420
 11382189
370
    25
100
AcDbVertex
100
AcDb2dVertex
 10
114.884765625
 20
34.9091796875
 30
0.0
  0
VERTEX
  5
52C
330
52A
100
AcDbEntity
  8
cotas
 62
   253
420
 11382189
370
    25
100
AcDbVertex
100
AcDb2dVertex
 10
119.41796875
 20
34.9091796875
 30
0.0
  0
SEQEND
  5
52D
330
52A
100
AcDbEntity
  8
cotas
370
    25
  0
ENDBLK
  5
529
330
526
100
AcDbEntity
  8
0
100
AcDbBlockEnd
  0
BLOCK
  5
530
330
52E
100
AcDbEntity
  8
0
100
AcDbBlockBegin
  2
block 174
 70
     0
 71
     0
 10
0.0
 20
0.0
 30
0.0
  3
block 174
  1

  0
POLYLINE
  5
532
330
52E
100
AcDbEntity
  8
cotas
370
     0
100
AcDb2dPolyline
 66
     1
 10
0.0
 20
0.0
 30
0.0
  0
VERTEX
  5
533
330
532
100
AcDbEntity
  8
cotas
370
     0
100
AcDbVertex
100
AcDb2dVertex
 10
97.2470703125
 20
35.6640625
 30
0.0
  0
VERTEX
  5
534
330
532
100
AcDbEntity
  8
cotas
370
     0
100
AcDbVertex
100
AcDb2dVertex
 10
97.2470703125
 20
34.1533203125
 30
0.0
  0
VERTEX
  5
535
330
532
100
AcDbEntity
  8
cotas
370
     0
100
AcDbVertex
100
AcDb2dVertex
 10
92.7138671875
 20
34.9091796875
 30
0.0
  0
VERTEX
  5
536
330
532
100
AcDbEntity
  8
cotas
370
     0
100
AcDbVertex
100
AcDb2dVertex
 10
97.2470703125
 20
35.6640625
 30
0.0
  0
SEQEND
  5
537
330
532
100
AcDbEntity
  8
cotas
370
     0
  0
HATCH
  5
538
330
52E
100
AcDbEntity
  8
cotas
 62
   253
420
 11382189
100
AcDbHatch
 10
0.0
 20
0.0
 30
0.0
210
0.0
220
0.0
230
1.0
  2
SOLID
 70
     1
 71
     0
 91
        1
 92
        1
 93
        3
 72
     1
 10
97.2470703125
 20
35.6640625
 11
97.2470703125
 21
34.1533203125
 72
     1
 10
97.2470703125
 20
34.1533203125
 11
92.7138671875
 21
34.9091796875
 72
     1
 10
92.7138671875
 20
34.9091796875
 11
97.2470703125
 21
35.6640625
 97
        0
 75
     2
 76
     1
 98
        0
  0
ENDBLK
  5
531
330
52E
100
AcDbEntity
  8
0
100
AcDbBlockEnd
  0
BLOCK
  5
53B
330
539
100
AcDbEntity
  8
0
100
AcDbBlockBegin
  2
block 175
 70
     0
 71
     0
 10
0.0
 20
0.0
 30
0.0
  3
block 175
  1

  0
POLYLINE
  5
53D
330
539
100
AcDbEntity
  8
cotas
370
     0
100
AcDb2dPolyline
 66
     1
 10
0.0
 20
0.0
 30
0.0
  0
VERTEX
  5
53E
330
53D
100
AcDbEntity
  8
cotas
370
     0
100
AcDbVertex
100
AcDb2dVertex
 10
110.3515625
 20
35.6640625
 30
0.0
  0
VERTEX
  5
53F
330
53D
100
AcDbEntity
  8
cotas
370
     0
100
AcDbVertex
100
AcDb2dVertex
 10
110.3515625
 20
34.1533203125
 30
0.0
  0
VERTEX
  5
540
330
53D
100
AcDbEntity
  8
cotas
370
     0
100
AcDbVertex
100
AcDb2dVertex
 10
114.884765625
 20
34.9091796875
 30
0.0
  0
VERTEX
  5
541
330
53D
100
AcDbEntity
  8
cotas
370
     0
100
AcDbVertex
100
AcDb2dVertex
 10
110.3515625
 20
35.6640625
 30
0.0
  0
SEQEND
  5
542
330
53D
100
AcDbEntity
  8
cotas
370
     0
  0
HATCH
  5
543
330
539
100
AcDbEntity
  8
cotas
 62
   253
420
 11382189
100
AcDbHatch
 10
0.0
 20
0.0
 30
0.0
210
0.0
220
0.0
230
1.0
  2
SOLID
 70
     1
 71
     0
 91
        1
 92
        1
 93
        3
 72
     1
 10
110.3515625
 20
35.6640625
 11
110.3515625
 21
34.1533203125
 72
     1
 10
110.3515625
 20
34.1533203125
 11
114.884765625
 21
34.9091796875
 72
     1
 10
114.884765625
 20
34.9091796875
 11
110.3515625
 21
35.6640625
 97
        0
 75
     2
 76
     1
 98
        0
  0
ENDBLK
  5
53C
330
539
100
AcDbEntity
  8
0
100
AcDbBlockEnd
  0
BLOCK
  5
546
330
544
100
AcDbEntity
  8
0
100
AcDbBlockBegin
  2
block 176
 70
     0
 71
     0
 10
0.0
 20
0.0
 30
0.0
  3
block 176
  1

  0
MTEXT
  5
548
330
544
100
AcDbEntity
  8
cotas
 62
   253
420
 11382189
100
AcDbMText
 10
130.4541015625
 20
30.115234375
 30
0.0
 40
9.713628692626953
 41
0.0
 71
     7
 72
     1
  1
\fArial|b0|i0|c0|p34;\W1;32-40
 73
     1
 44
1.0
  0
ENDBLK
  5
547
330
544
100
AcDbEntity
  8
0
100
AcDbBlockEnd
  0
BLOCK
  5
54B
330
549
100
AcDbEntity
  8
0
100
AcDbBlockBegin
  2
block 177
 70
     0
 71
     0
 10
0.0
 20
0.0
 30
0.0
  3
block 177
  1

  0
POLYLINE
  5
54D
330
549
100
AcDbEntity
  8
cotas
 62
   253
420
 11382189
370
    25
100
AcDb2dPolyline
 66
     1
 10
0.0
 20
0.0
 30
0.0
  0
VERTEX
  5
54E
330
54D
100
AcDbEntity
  8
cotas
 62
   253
420
 11382189
370
    25
100
AcDbVertex
100
AcDb2dVertex
 10
92.7138671875
 20
61.9677734375
 30
0.0
  0
VERTEX
  5
54F
330
54D
100
AcDbEntity
  8
cotas
 62
   253
420
 11382189
370
    25
100
AcDbVertex
100
AcDb2dVertex
 10
92.7138671875
 20
61.9677734375
 30
0.0
  0
SEQEND
  5
550
330
54D
100
AcDbEntity
  8
cotas
370
    25
  0
ENDBLK
  5
54C
330
549
100
AcDbEntity
  8
0
100
AcDbBlockEnd
  0
BLOCK
  5
553
330
551
100
AcDbEntity
  8
0
100
AcDbBlockBegin
  2
block 178
 70
     0
 71
     0
 10
0.0
 20
0.0
 30
0.0
  3
block 178
  1

  0
POLYLINE
  5
555
330
551
100
AcDbEntity
  8
cotas
 62
   253
420
 11382189
370
    25
100
AcDb2dPolyline
 66
     1
 10
0.0
 20
0.0
 30
0.0
  0
VERTEX
  5
556
330
555
100
AcDbEntity
  8
cotas
 62
   253
420
 11382189
370
    25
100
AcDbVertex
100
AcDb2dVertex
 10
114.884765625
 20
53.0986328125
 30
0.0
  0
VERTEX
  5
557
330
555
100
AcDbEntity
  8
cotas
 62
   253
420
 11382189
370
    25
100
AcDbVertex
100
AcDb2dVertex
 10
114.884765625
 20
53.0986328125
 30
0.0
  0
SEQEND
  5
558
330
555
100
AcDbEntity
  8
cotas
370
    25
  0
ENDBLK
  5
554
330
551
100
AcDbEntity
  8
0
100
AcDbBlockEnd
  0
BLOCK
  5
55B
330
559
100
AcDbEntity
  8
0
100
AcDbBlockBegin
  2
block 179
 70
     0
 71
     0
 10
0.0
 20
0.0
 30
0.0
  3
block 179
  1

  0
POLYLINE
  5
55D
330
559
100
AcDbEntity
  8
cotas
 62
   253
420
 11382189
370
    25
100
AcDb2dPolyline
 66
     1
 10
0.0
 20
0.0
 30
0.0
  0
VERTEX
  5
55E
330
55D
100
AcDbEntity
  8
cotas
 62
   253
420
 11382189
370
    25
100
AcDbVertex
100
AcDb2dVertex
 10
114.884765625
 20
34.9091796875
 30
0.0
  0
VERTEX
  5
55F
330
55D
100
AcDbEntity
  8
cotas
 62
   253
420
 11382189
370
    25
100
AcDbVertex
100
AcDb2dVertex
 10
114.884765625
 20
34.9091796875
 30
0.0
  0
SEQEND
  5
560
330
55D
100
AcDbEntity
  8
cotas
370
    25
  0
ENDBLK
  5
55C
330
559
100
AcDbEntity
  8
0
100
AcDbBlockEnd
  0
BLOCK
  5
563
330
561
100
AcDbEntity
  8
0
100
AcDbBlockBegin
  2
block 180
 70
     0
 71
     0
 10
0.0
 20
0.0
 30
0.0
  3
block 180
  1

  0
INSERT
  5
566
330
561
100
AcDbEntity
  8
cotas
100
AcDbBlockReference
  2
block 181
 10
0.0
 20
0.0
 30
0.0
  0
INSERT
  5
56E
330
561
100
AcDbEntity
  8
cotas
100
AcDbBlockReference
  2
block 182
 10
0.0
 20
0.0
 30
0.0
  0
INSERT
  5
576
330
561
100
AcDbEntity
  8
cotas
100
AcDbBlockReference
  2
block 183
 10
0.0
 20
0.0
 30
0.0
  0
INSERT
  5
57E
330
561
100
AcDbEntity
  8
cotas
100
AcDbBlockReference
  2
block 184
 10
0.0
 20
0.0
 30
0.0
  0
INSERT
  5
586
330
561
100
AcDbEntity
  8
cotas
100
AcDbBlockReference
  2
block 185
 10
0.0
 20
0.0
 30
0.0
  0
INSERT
  5
591
330
561
100
AcDbEntity
  8
cotas
100
AcDbBlockReference
  2
block 186
 10
0.0
 20
0.0
 30
0.0
  0
INSERT
  5
59C
330
561
100
AcDbEntity
  8
cotas
100
AcDbBlockReference
  2
block 187
 10
0.0
 20
0.0
 30
0.0
  0
INSERT
  5
5A1
330
561
100
AcDbEntity
  8
cotas
100
AcDbBlockReference
  2
block 188
 10
0.0
 20
0.0
 30
0.0
  0
INSERT
  5
5A9
330
561
100
AcDbEntity
  8
cotas
100
AcDbBlockReference
  2
block 189
 10
0.0
 20
0.0
 30
0.0
  0
INSERT
  5
5B1
330
561
100
AcDbEntity
  8
cotas
100
AcDbBlockReference
  2
block 190
 10
0.0
 20
0.0
 30
0.0
  0
ENDBLK
  5
564
330
561
100
AcDbEntity
  8
0
100
AcDbBlockEnd
  0
BLOCK
  5
567
330
565
100
AcDbEntity
  8
0
100
AcDbBlockBegin
  2
block 181
 70
     0
 71
     0
 10
0.0
 20
0.0
 30
0.0
  3
block 181
  1

  0
POLYLINE
  5
569
330
565
100
AcDbEntity
  8
cotas
 62
   253
420
 11382189
370
    25
100
AcDb2dPolyline
 66
     1
 10
0.0
 20
0.0
 30
0.0
  0
VERTEX
  5
56A
330
569
100
AcDbEntity
  8
cotas
 62
   253
420
 11382189
370
    25
100
AcDbVertex
100
AcDb2dVertex
 10
108.40869140625
 20
156.513671875
 30
0.0
  0
VERTEX
  5
56B
330
569
100
AcDbEntity
  8
cotas
 62
   253
420
 11382189
370
    25
100
AcDbVertex
100
AcDb2dVertex
 10
40.259765625
 20
156.513671875
 30
0.0
  0
SEQEND
  5
56C
330
569
100
AcDbEntity
  8
cotas
370
    25
  0
ENDBLK
  5
568
330
565
100
AcDbEntity
  8
0
100
AcDbBlockEnd
  0
BLOCK
  5
56F
330
56D
100
AcDbEntity
  8
0
100
AcDbBlockBegin
  2
block 182
 70
     0
 71
     0
 10
0.0
 20
0.0
 30
0.0
  3
block 182
  1

  0
POLYLINE
  5
571
330
56D
100
AcDbEntity
  8
cotas
 62
   253
420
 11382189
370
    25
100
AcDb2dPolyline
 66
     1
 10
0.0
 20
0.0
 30
0.0
  0
VERTEX
  5
572
330
571
100
AcDbEntity
  8
cotas
 62
   253
420
 11382189
370
    25
100
AcDbVertex
100
AcDb2dVertex
 10
108.40869140625
 20
121.5439453125
 30
0.0
  0
VERTEX
  5
573
330
571
100
AcDbEntity
  8
cotas
 62
   253
420
 11382189
370
    25
100
AcDbVertex
100
AcDb2dVertex
 10
40.259765625
 20
121.5439453125
 30
0.0
  0
SEQEND
  5
574
330
571
100
AcDbEntity
  8
cotas
370
    25
  0
ENDBLK
  5
570
330
56D
100
AcDbEntity
  8
0
100
AcDbBlockEnd
  0
BLOCK
  5
577
330
575
100
AcDbEntity
  8
0
100
AcDbBlockBegin
  2
block 183
 70
     0
 71
     0
 10
0.0
 20
0.0
 30
0.0
  3
block 183
  1

  0
POLYLINE
  5
579
330
575
100
AcDbEntity
  8
cotas
 62
   253
420
 11382189
370
    25
100
AcDb2dPolyline
 66
     1
 10
0.0
 20
0.0
 30
0.0
  0
VERTEX
  5
57A
330
579
100
AcDbEntity
  8
cotas
 62
   253
420
 11382189
370
    25
100
AcDbVertex
100
AcDb2dVertex
 10
43.49755859375
 20
151.98046875
 30
0.0
  0
VERTEX
  5
57B
330
579
100
AcDbEntity
  8
cotas
 62
   253
420
 11382189
370
    25
100
AcDbVertex
100
AcDb2dVertex
 10
43.49755859375
 20
151.0068359375
 30
0.0
  0
SEQEND
  5
57C
330
579
100
AcDbEntity
  8
cotas
370
    25
  0
ENDBLK
  5
578
330
575
100
AcDbEntity
  8
0
100
AcDbBlockEnd
  0
BLOCK
  5
57F
330
57D
100
AcDbEntity
  8
0
100
AcDbBlockBegin
  2
block 184
 70
     0
 71
     0
 10
0.0
 20
0.0
 30
0.0
  3
block 184
  1

  0
POLYLINE
  5
581
330
57D
100
AcDbEntity
  8
cotas
 62
   253
420
 11382189
370
    25
100
AcDb2dPolyline
 66
     1
 10
0.0
 20
0.0
 30
0.0
  0
VERTEX
  5
582
330
581
100
AcDbEntity
  8
cotas
 62
   253
420
 11382189
370
    25
100
AcDbVertex
100
AcDb2dVertex
 10
43.49755859375
 20
126.0771484375
 30
0.0
  0
VERTEX
  5
583
330
581
100
AcDbEntity
  8
cotas
 62
   253
420
 11382189
370
    25
100
AcDbVertex
100
AcDb2dVertex
 10
43.49755859375
 20
128.341796875
 30
0.0
  0
SEQEND
  5
584
330
581
100
AcDbEntity
  8
cotas
370
    25
  0
ENDBLK
  5
580
330
57D
100
AcDbEntity
  8
0
100
AcDbBlockEnd
  0
BLOCK
  5
587
330
585
100
AcDbEntity
  8
0
100
AcDbBlockBegin
  2
block 185
 70
     0
 71
     0
 10
0.0
 20
0.0
 30
0.0
  3
block 185
  1

  0
POLYLINE
  5
589
330
585
100
AcDbEntity
  8
cotas
370
     0
100
AcDb2dPolyline
 66
     1
 10
0.0
 20
0.0
 30
0.0
  0
VERTEX
  5
58A
330
589
100
AcDbEntity
  8
cotas
370
     0
100
AcDbVertex
100
AcDb2dVertex
 10
42.7421875
 20
151.98046875
 30
0.0
  0
VERTEX
  5
58B
330
589
100
AcDbEntity
  8
cotas
370
     0
100
AcDbVertex
100
AcDb2dVertex
 10
44.2529296875
 20
151.98046875
 30
0.0
  0
VERTEX
  5
58C
330
589
100
AcDbEntity
  8
cotas
370
     0
100
AcDbVertex
100
AcDb2dVertex
 10
43.49755859375
 20
156.513671875
 30
0.0
  0
VERTEX
  5
58D
330
589
100
AcDbEntity
  8
cotas
370
     0
100
AcDbVertex
100
AcDb2dVertex
 10
42.7421875
 20
151.98046875
 30
0.0
  0
SEQEND
  5
58E
330
589
100
AcDbEntity
  8
cotas
370
     0
  0
HATCH
  5
58F
330
585
100
AcDbEntity
  8
cotas
 62
   253
420
 11382189
100
AcDbHatch
 10
0.0
 20
0.0
 30
0.0
210
0.0
220
0.0
230
1.0
  2
SOLID
 70
     1
 71
     0
 91
        1
 92
        1
 93
        3
 72
     1
 10
42.7421875
 20
151.98046875
 11
44.2529296875
 21
151.98046875
 72
     1
 10
44.2529296875
 20
151.98046875
 11
43.49755859375
 21
156.513671875
 72
     1
 10
43.49755859375
 20
156.513671875
 11
42.7421875
 21
151.98046875
 97
        0
 75
     2
 76
     1
 98
        0
  0
ENDBLK
  5
588
330
585
100
AcDbEntity
  8
0
100
AcDbBlockEnd
  0
BLOCK
  5
592
330
590
100
AcDbEntity
  8
0
100
AcDbBlockBegin
  2
block 186
 70
     0
 71
     0
 10
0.0
 20
0.0
 30
0.0
  3
block 186
  1

  0
POLYLINE
  5
594
330
590
100
AcDbEntity
  8
cotas
370
     0
100
AcDb2dPolyline
 66
     1
 10
0.0
 20
0.0
 30
0.0
  0
VERTEX
  5
595
330
594
100
AcDbEntity
  8
cotas
370
     0
100
AcDbVertex
100
AcDb2dVertex
 10
42.7421875
 20
126.0771484375
 30
0.0
  0
VERTEX
  5
596
330
594
100
AcDbEntity
  8
cotas
370
     0
100
AcDbVertex
100
AcDb2dVertex
 10
44.2529296875
 20
126.0771484375
 30
0.0
  0
VERTEX
  5
597
330
594
100
AcDbEntity
  8
cotas
370
     0
100
AcDbVertex
100
AcDb2dVertex
 10
43.49755859375
 20
121.5439453125
 30
0.0
  0
VERTEX
  5
598
330
594
100
AcDbEntity
  8
cotas
370
     0
100
AcDbVertex
100
AcDb2dVertex
 10
42.7421875
 20
126.0771484375
 30
0.0
  0
SEQEND
  5
599
330
594
100
AcDbEntity
  8
cotas
370
     0
  0
HATCH
  5
59A
330
590
100
AcDbEntity
  8
cotas
 62
   253
420
 11382189
100
AcDbHatch
 10
0.0
 20
0.0
 30
0.0
210
0.0
220
0.0
230
1.0
  2
SOLID
 70
     1
 71
     0
 91
        1
 92
        1
 93
        3
 72
     1
 10
42.7421875
 20
126.0771484375
 11
44.2529296875
 21
126.0771484375
 72
     1
 10
44.2529296875
 20
126.0771484375
 11
43.49755859375
 21
121.5439453125
 72
     1
 10
43.49755859375
 20
121.5439453125
 11
42.7421875
 21
126.0771484375
 97
        0
 75
     2
 76
     1
 98
        0
  0
ENDBLK
  5
593
330
590
100
AcDbEntity
  8
0
100
AcDbBlockEnd
  0
BLOCK
  5
59D
330
59B
100
AcDbEntity
  8
0
100
AcDbBlockBegin
  2
block 187
 70
     0
 71
     0
 10
0.0
 20
0.0
 30
0.0
  3
block 187
  1

  0
MTEXT
  5
59F
330
59B
100
AcDbEntity
  8
cotas
 62
   253
420
 11382189
100
AcDbMText
 10
30.73876953125
 20
134.8369140625
 30
0.0
 40
9.713628692626953
 41
0.0
 71
     7
 72
     1
  1
\fArial|b0|i0|c0|p34;\W1;Ø54
 73
     1
 44
1.0
  0
ENDBLK
  5
59E
330
59B
100
AcDbEntity
  8
0
100
AcDbBlockEnd
  0
BLOCK
  5
5A2
330
5A0
100
AcDbEntity
  8
0
100
AcDbBlockBegin
  2
block 188
 70
     0
 71
     0
 10
0.0
 20
0.0
 30
0.0
  3
block 188
  1

  0
POLYLINE
  5
5A4
330
5A0
100
AcDbEntity
  8
cotas
 62
   253
420
 11382189
370
    25
100
AcDb2dPolyline
 66
     1
 10
0.0
 20
0.0
 30
0.0
  0
VERTEX
  5
5A5
330
5A4
100
AcDbEntity
  8
cotas
 62
   253
420
 11382189
370
    25
100
AcDbVertex
100
AcDb2dVertex
 10
114.884765625
 20
156.513671875
 30
0.0
  0
VERTEX
  5
5A6
330
5A4
100
AcDbEntity
  8
cotas
 62
   253
420
 11382189
370
    25
100
AcDbVertex
100
AcDb2dVertex
 10
114.884765625
 20
156.513671875
 30
0.0
  0
SEQEND
  5
5A7
330
5A4
100
AcDbEntity
  8
cotas
370
    25
  0
ENDBLK
  5
5A3
330
5A0
100
AcDbEntity
  8
0
100
AcDbBlockEnd
  0
BLOCK
  5
5AA
330
5A8
100
AcDbEntity
  8
0
100
AcDbBlockBegin
  2
block 189
 70
     0
 71
     0
 10
0.0
 20
0.0
 30
0.0
  3
block 189
  1

  0
POLYLINE
  5
5AC
330
5A8
100
AcDbEntity
  8
cotas
 62
   253
420
 11382189
370
    25
100
AcDb2dPolyline
 66
     1
 10
0.0
 20
0.0
 30
0.0
  0
VERTEX
  5
5AD
330
5AC
100
AcDbEntity
  8
cotas
 62
   253
420
 11382189
370
    25
100
AcDbVertex
100
AcDb2dVertex
 10
114.884765625
 20
121.5439453125
 30
0.0
  0
VERTEX
  5
5AE
330
5AC
100
AcDbEntity
  8
cotas
 62
   253
420
 11382189
370
    25
100
AcDbVertex
100
AcDb2dVertex
 10
114.884765625
 20
121.5439453125
 30
0.0
  0
SEQEND
  5
5AF
330
5AC
100
AcDbEntity
  8
cotas
370
    25
  0
ENDBLK
  5
5AB
330
5A8
100
AcDbEntity
  8
0
100
AcDbBlockEnd
  0
BLOCK
  5
5B2
330
5B0
100
AcDbEntity
  8
0
100
AcDbBlockBegin
  2
block 190
 70
     0
 71
     0
 10
0.0
 20
0.0
 30
0.0
  3
block 190
  1

  0
POLYLINE
  5
5B4
330
5B0
100
AcDbEntity
  8
cotas
 62
   253
420
 11382189
370
    25
100
AcDb2dPolyline
 66
     1
 10
0.0
 20
0.0
 30
0.0
  0
VERTEX
  5
5B5
330
5B4
100
AcDbEntity
  8
cotas
 62
   253
420
 11382189
370
    25
100
AcDbVertex
100
AcDb2dVertex
 10
43.49755859375
 20
121.5439453125
 30
0.0
  0
VERTEX
  5
5B6
330
5B4
100
AcDbEntity
  8
cotas
 62
   253
420
 11382189
370
    25
100
AcDbVertex
100
AcDb2dVertex
 10
43.49755859375
 20
121.5439453125
 30
0.0
  0
SEQEND
  5
5B7
330
5B4
100
AcDbEntity
  8
cotas
370
    25
  0
ENDBLK
  5
5B3
330
5B0
100
AcDbEntity
  8
0
100
AcDbBlockEnd
  0
BLOCK
  5
5BA
330
5B8
100
AcDbEntity
  8
0
100
AcDbBlockBegin
  2
block 191
 70
     0
 71
     0
 10
0.0
 20
0.0
 30
0.0
  3
block 191
  1

  0
INSERT
  5
5BD
330
5B8
100
AcDbEntity
  8
cotas
100
AcDbBlockReference
  2
block 192
 10
0.0
 20
0.0
 30
0.0
  0
INSERT
  5
5C5
330
5B8
100
AcDbEntity
  8
cotas
100
AcDbBlockReference
  2
block 193
 10
0.0
 20
0.0
 30
0.0
  0
INSERT
  5
5CD
330
5B8
100
AcDbEntity
  8
cotas
100
AcDbBlockReference
  2
block 194
 10
0.0
 20
0.0
 30
0.0
  0
INSERT
  5
5D5
330
5B8
100
AcDbEntity
  8
cotas
100
AcDbBlockReference
  2
block 195
 10
0.0
 20
0.0
 30
0.0
  0
INSERT
  5
5DD
330
5B8
100
AcDbEntity
  8
cotas
100
AcDbBlockReference
  2
block 196
 10
0.0
 20
0.0
 30
0.0
  0
INSERT
  5
5E5
330
5B8
100
AcDbEntity
  8
cotas
100
AcDbBlockReference
  2
block 197
 10
0.0
 20
0.0
 30
0.0
  0
INSERT
  5
5ED
330
5B8
100
AcDbEntity
  8
cotas
100
AcDbBlockReference
  2
block 198
 10
0.0
 20
0.0
 30
0.0
  0
INSERT
  5
5F8
330
5B8
100
AcDbEntity
  8
cotas
100
AcDbBlockReference
  2
block 199
 10
0.0
 20
0.0
 30
0.0
  0
INSERT
  5
603
330
5B8
100
AcDbEntity
  8
cotas
100
AcDbBlockReference
  2
block 200
 10
0.0
 20
0.0
 30
0.0
  0
INSERT
  5
608
330
5B8
100
AcDbEntity
  8
cotas
100
AcDbBlockReference
  2
block 201
 10
0.0
 20
0.0
 30
0.0
  0
INSERT
  5
610
330
5B8
100
AcDbEntity
  8
cotas
100
AcDbBlockReference
  2
block 202
 10
0.0
 20
0.0
 30
0.0
  0
INSERT
  5
618
330
5B8
100
AcDbEntity
  8
cotas
100
AcDbBlockReference
  2
block 203
 10
0.0
 20
0.0
 30
0.0
  0
ENDBLK
  5
5BB
330
5B8
100
AcDbEntity
  8
0
100
AcDbBlockEnd
  0
BLOCK
  5
5BE
330
5BC
100
AcDbEntity
  8
0
100
AcDbBlockBegin
  2
block 192
 70
     0
 71
     0
 10
0.0
 20
0.0
 30
0.0
  3
block 192
  1

  0
POLYLINE
  5
5C0
330
5BC
100
AcDbEntity
  8
cotas
 62
   253
420
 11382189
370
    25
100
AcDb2dPolyline
 66
     1
 10
0.0
 20
0.0
 30
0.0
  0
VERTEX
  5
5C1
330
5C0
100
AcDbEntity
  8
cotas
 62
   253
420
 11382189
370
    25
100
AcDbVertex
100
AcDb2dVertex
 10
108.40869140625
 20
224.8330078125
 30
0.0
  0
VERTEX
  5
5C2
330
5C0
100
AcDbEntity
  8
cotas
 62
   253
420
 11382189
370
    25
100
AcDbVertex
100
AcDb2dVertex
 10
42.568359375
 20
224.8330078125
 30
0.0
  0
SEQEND
  5
5C3
330
5C0
100
AcDbEntity
  8
cotas
370
    25
  0
ENDBLK
  5
5BF
330
5BC
100
AcDbEntity
  8
0
100
AcDbBlockEnd
  0
BLOCK
  5
5C6
330
5C4
100
AcDbEntity
  8
0
100
AcDbBlockBegin
  2
block 193
 70
     0
 71
     0
 10
0.0
 20
0.0
 30
0.0
  3
block 193
  1

  0
POLYLINE
  5
5C8
330
5C4
100
AcDbEntity
  8
cotas
 62
   253
420
 11382189
370
    25
100
AcDb2dPolyline
 66
     1
 10
0.0
 20
0.0
 30
0.0
  0
VERTEX
  5
5C9
330
5C8
100
AcDbEntity
  8
cotas
 62
   253
420
 11382189
370
    25
100
AcDbVertex
100
AcDb2dVertex
 10
108.40869140625
 20
189.7373046875
 30
0.0
  0
VERTEX
  5
5CA
330
5C8
100
AcDbEntity
  8
cotas
 62
   253
420
 11382189
370
    25
100
AcDbVertex
100
AcDb2dVertex
 10
42.568359375
 20
189.7373046875
 30
0.0
  0
SEQEND
  5
5CB
330
5C8
100
AcDbEntity
  8
cotas
370
    25
  0
ENDBLK
  5
5C7
330
5C4
100
AcDbEntity
  8
0
100
AcDbBlockEnd
  0
BLOCK
  5
5CE
330
5CC
100
AcDbEntity
  8
0
100
AcDbBlockBegin
  2
block 194
 70
     0
 71
     0
 10
0.0
 20
0.0
 30
0.0
  3
block 194
  1

  0
POLYLINE
  5
5D0
330
5CC
100
AcDbEntity
  8
cotas
 62
   253
420
 11382189
370
    25
100
AcDb2dPolyline
 66
     1
 10
0.0
 20
0.0
 30
0.0
  0
VERTEX
  5
5D1
330
5D0
100
AcDbEntity
  8
cotas
 62
   253
420
 11382189
370
    25
100
AcDbVertex
100
AcDb2dVertex
 10
45.80615234375
 20
229.3662109375
 30
0.0
  0
VERTEX
  5
5D2
330
5D0
100
AcDbEntity
  8
cotas
 62
   253
420
 11382189
370
    25
100
AcDbVertex
100
AcDb2dVertex
 10
45.80615234375
 20
233.8984375
 30
0.0
  0
SEQEND
  5
5D3
330
5D0
100
AcDbEntity
  8
cotas
370
    25
  0
ENDBLK
  5
5CF
330
5CC
100
AcDbEntity
  8
0
100
AcDbBlockEnd
  0
BLOCK
  5
5D6
330
5D4
100
AcDbEntity
  8
0
100
AcDbBlockBegin
  2
block 195
 70
     0
 71
     0
 10
0.0
 20
0.0
 30
0.0
  3
block 195
  1

  0
POLYLINE
  5
5D8
330
5D4
100
AcDbEntity
  8
cotas
 62
   253
420
 11382189
370
    25
100
AcDb2dPolyline
 66
     1
 10
0.0
 20
0.0
 30
0.0
  0
VERTEX
  5
5D9
330
5D8
100
AcDbEntity
  8
cotas
 62
   253
420
 11382189
370
    25
100
AcDbVertex
100
AcDb2dVertex
 10
45.80615234375
 20
185.2041015625
 30
0.0
  0
VERTEX
  5
5DA
330
5D8
100
AcDbEntity
  8
cotas
 62
   253
420
 11382189
370
    25
100
AcDbVertex
100
AcDb2dVertex
 10
45.80615234375
 20
180.671875
 30
0.0
  0
SEQEND
  5
5DB
330
5D8
100
AcDbEntity
  8
cotas
370
    25
  0
ENDBLK
  5
5D7
330
5D4
100
AcDbEntity
  8
0
100
AcDbBlockEnd
  0
BLOCK
  5
5DE
330
5DC
100
AcDbEntity
  8
0
100
AcDbBlockBegin
  2
block 196
 70
     0
 71
     0
 10
0.0
 20
0.0
 30
0.0
  3
block 196
  1

  0
POLYLINE
  5
5E0
330
5DC
100
AcDbEntity
  8
cotas
 62
   253
420
 11382189
370
    25
100
AcDb2dPolyline
 66
     1
 10
0.0
 20
0.0
 30
0.0
  0
VERTEX
  5
5E1
330
5E0
100
AcDbEntity
  8
cotas
 62
   253
420
 11382189
370
    25
100
AcDbVertex
100
AcDb2dVertex
 10
45.80615234375
 20
224.8330078125
 30
0.0
  0
VERTEX
  5
5E2
330
5E0
100
AcDbEntity
  8
cotas
 62
   253
420
 11382189
370
    25
100
AcDbVertex
100
AcDb2dVertex
 10
45.80615234375
 20
214.1474609375
 30
0.0
  0
SEQEND
  5
5E3
330
5E0
100
AcDbEntity
  8
cotas
370
    25
  0
ENDBLK
  5
5DF
330
5DC
100
AcDbEntity
  8
0
100
AcDbBlockEnd
  0
BLOCK
  5
5E6
330
5E4
100
AcDbEntity
  8
0
100
AcDbBlockBegin
  2
block 197
 70
     0
 71
     0
 10
0.0
 20
0.0
 30
0.0
  3
block 197
  1

  0
POLYLINE
  5
5E8
330
5E4
100
AcDbEntity
  8
cotas
 62
   253
420
 11382189
370
    25
100
AcDb2dPolyline
 66
     1
 10
0.0
 20
0.0
 30
0.0
  0
VERTEX
  5
5E9
330
5E8
100
AcDbEntity
  8
cotas
 62
   253
420
 11382189
370
    25
100
AcDbVertex
100
AcDb2dVertex
 10
45.80615234375
 20
189.7373046875
 30
0.0
  0
VERTEX
  5
5EA
330
5E8
100
AcDbEntity
  8
cotas
 62
   253
420
 11382189
370
    25
100
AcDbVertex
100
AcDb2dVertex
 10
45.80615234375
 20
191.482421875
 30
0.0
  0
SEQEND
  5
5EB
330
5E8
100
AcDbEntity
  8
cotas
370
    25
  0
ENDBLK
  5
5E7
330
5E4
100
AcDbEntity
  8
0
100
AcDbBlockEnd
  0
BLOCK
  5
5EE
330
5EC
100
AcDbEntity
  8
0
100
AcDbBlockBegin
  2
block 198
 70
     0
 71
     0
 10
0.0
 20
0.0
 30
0.0
  3
block 198
  1

  0
POLYLINE
  5
5F0
330
5EC
100
AcDbEntity
  8
cotas
370
     0
100
AcDb2dPolyline
 66
     1
 10
0.0
 20
0.0
 30
0.0
  0
VERTEX
  5
5F1
330
5F0
100
AcDbEntity
  8
cotas
370
     0
100
AcDbVertex
100
AcDb2dVertex
 10
45.05078125
 20
229.3662109375
 30
0.0
  0
VERTEX
  5
5F2
330
5F0
100
AcDbEntity
  8
cotas
370
     0
100
AcDbVertex
100
AcDb2dVertex
 10
46.5615234375
 20
229.3662109375
 30
0.0
  0
VERTEX
  5
5F3
330
5F0
100
AcDbEntity
  8
cotas
370
     0
100
AcDbVertex
100
AcDb2dVertex
 10
45.80615234375
 20
224.8330078125
 30
0.0
  0
VERTEX
  5
5F4
330
5F0
100
AcDbEntity
  8
cotas
370
     0
100
AcDbVertex
100
AcDb2dVertex
 10
45.05078125
 20
229.3662109375
 30
0.0
  0
SEQEND
  5
5F5
330
5F0
100
AcDbEntity
  8
cotas
370
     0
  0
HATCH
  5
5F6
330
5EC
100
AcDbEntity
  8
cotas
 62
   253
420
 11382189
100
AcDbHatch
 10
0.0
 20
0.0
 30
0.0
210
0.0
220
0.0
230
1.0
  2
SOLID
 70
     1
 71
     0
 91
        1
 92
        1
 93
        3
 72
     1
 10
45.05078125
 20
229.3662109375
 11
46.5615234375
 21
229.3662109375
 72
     1
 10
46.5615234375
 20
229.3662109375
 11
45.80615234375
 21
224.8330078125
 72
     1
 10
45.80615234375
 20
224.8330078125
 11
45.05078125
 21
229.3662109375
 97
        0
 75
     2
 76
     1
 98
        0
  0
ENDBLK
  5
5EF
330
5EC
100
AcDbEntity
  8
0
100
AcDbBlockEnd
  0
BLOCK
  5
5F9
330
5F7
100
AcDbEntity
  8
0
100
AcDbBlockBegin
  2
block 199
 70
     0
 71
     0
 10
0.0
 20
0.0
 30
0.0
  3
block 199
  1

  0
POLYLINE
  5
5FB
330
5F7
100
AcDbEntity
  8
cotas
370
     0
100
AcDb2dPolyline
 66
     1
 10
0.0
 20
0.0
 30
0.0
  0
VERTEX
  5
5FC
330
5FB
100
AcDbEntity
  8
cotas
370
     0
100
AcDbVertex
100
AcDb2dVertex
 10
45.05078125
 20
185.2041015625
 30
0.0
  0
VERTEX
  5
5FD
330
5FB
100
AcDbEntity
  8
cotas
370
     0
100
AcDbVertex
100
AcDb2dVertex
 10
46.5615234375
 20
185.2041015625
 30
0.0
  0
VERTEX
  5
5FE
330
5FB
100
AcDbEntity
  8
cotas
370
     0
100
AcDbVertex
100
AcDb2dVertex
 10
45.80615234375
 20
189.7373046875
 30
0.0
  0
VERTEX
  5
5FF
330
5FB
100
AcDbEntity
  8
cotas
370
     0
100
AcDbVertex
100
AcDb2dVertex
 10
45.05078125
 20
185.2041015625
 30
0.0
  0
SEQEND
  5
600
330
5FB
100
AcDbEntity
  8
cotas
370
     0
  0
HATCH
  5
601
330
5F7
100
AcDbEntity
  8
cotas
 62
   253
420
 11382189
100
AcDbHatch
 10
0.0
 20
0.0
 30
0.0
210
0.0
220
0.0
230
1.0
  2
SOLID
 70
     1
 71
     0
 91
        1
 92
        1
 93
        3
 72
     1
 10
45.05078125
 20
185.2041015625
 11
46.5615234375
 21
185.2041015625
 72
     1
 10
46.5615234375
 20
185.2041015625
 11
45.80615234375
 21
189.7373046875
 72
     1
 10
45.80615234375
 20
189.7373046875
 11
45.05078125
 21
185.2041015625
 97
        0
 75
     2
 76
     1
 98
        0
  0
ENDBLK
  5
5FA
330
5F7
100
AcDbEntity
  8
0
100
AcDbBlockEnd
  0
BLOCK
  5
604
330
602
100
AcDbEntity
  8
0
100
AcDbBlockBegin
  2
block 200
 70
     0
 71
     0
 10
0.0
 20
0.0
 30
0.0
  3
block 200
  1

  0
MTEXT
  5
606
330
602
100
AcDbEntity
  8
cotas
 62
   253
420
 11382189
100
AcDbMText
 10
33.0478515625
 20
197.9775390625
 30
0.0
 40
9.713628692626953
 41
0.0
 71
     7
 72
     1
  1
\fArial|b0|i0|c0|p34;\W1;Ø54
 73
     1
 44
1.0
  0
ENDBLK
  5
605
330
602
100
AcDbEntity
  8
0
100
AcDbBlockEnd
  0
BLOCK
  5
609
330
607
100
AcDbEntity
  8
0
100
AcDbBlockBegin
  2
block 201
 70
     0
 71
     0
 10
0.0
 20
0.0
 30
0.0
  3
block 201
  1

  0
POLYLINE
  5
60B
330
607
100
AcDbEntity
  8
cotas
 62
   253
420
 11382189
370
    25
100
AcDb2dPolyline
 66
     1
 10
0.0
 20
0.0
 30
0.0
  0
VERTEX
  5
60C
330
60B
100
AcDbEntity
  8
cotas
 62
   253
420
 11382189
370
    25
100
AcDbVertex
100
AcDb2dVertex
 10
114.884765625
 20
224.8330078125
 30
0.0
  0
VERTEX
  5
60D
330
60B
100
AcDbEntity
  8
cotas
 62
   253
420
 11382189
370
    25
100
AcDbVertex
100
AcDb2dVertex
 10
114.884765625
 20
224.8330078125
 30
0.0
  0
SEQEND
  5
60E
330
60B
100
AcDbEntity
  8
cotas
370
    25
  0
ENDBLK
  5
60A
330
607
100
AcDbEntity
  8
0
100
AcDbBlockEnd
  0
BLOCK
  5
611
330
60F
100
AcDbEntity
  8
0
100
AcDbBlockBegin
  2
block 202
 70
     0
 71
     0
 10
0.0
 20
0.0
 30
0.0
  3
block 202
  1

  0
POLYLINE
  5
613
330
60F
100
AcDbEntity
  8
cotas
 62
   253
420
 11382189
370
    25
100
AcDb2dPolyline
 66
     1
 10
0.0
 20
0.0
 30
0.0
  0
VERTEX
  5
614
330
613
100
AcDbEntity
  8
cotas
 62
   253
420
 11382189
370
    25
100
AcDbVertex
100
AcDb2dVertex
 10
114.884765625
 20
189.7373046875
 30
0.0
  0
VERTEX
  5
615
330
613
100
AcDbEntity
  8
cotas
 62
   253
420
 11382189
370
    25
100
AcDbVertex
100
AcDb2dVertex
 10
114.884765625
 20
189.7373046875
 30
0.0
  0
SEQEND
  5
616
330
613
100
AcDbEntity
  8
cotas
370
    25
  0
ENDBLK
  5
612
330
60F
100
AcDbEntity
  8
0
100
AcDbBlockEnd
  0
BLOCK
  5
619
330
617
100
AcDbEntity
  8
0
100
AcDbBlockBegin
  2
block 203
 70
     0
 71
     0
 10
0.0
 20
0.0
 30
0.0
  3
block 203
  1

  0
POLYLINE
  5
61B
330
617
100
AcDbEntity
  8
cotas
 62
   253
420
 11382189
370
    25
100
AcDb2dPolyline
 66
     1
 10
0.0
 20
0.0
 30
0.0
  0
VERTEX
  5
61C
330
61B
100
AcDbEntity
  8
cotas
 62
   253
420
 11382189
370
    25
100
AcDbVertex
100
AcDb2dVertex
 10
45.80615234375
 20
189.7373046875
 30
0.0
  0
VERTEX
  5
61D
330
61B
100
AcDbEntity
  8
cotas
 62
   253
420
 11382189
370
    25
100
AcDbVertex
100
AcDb2dVertex
 10
45.80615234375
 20
189.7373046875
 30
0.0
  0
SEQEND
  5
61E
330
61B
100
AcDbEntity
  8
cotas
370
    25
  0
ENDBLK
  5
61A
330
617
100
AcDbEntity
  8
0
100
AcDbBlockEnd
  0
BLOCK
  5
621
330
61F
100
AcDbEntity
  8
0
100
AcDbBlockBegin
  2
block 204
 70
     0
 71
     0
 10
0.0
 20
0.0
 30
0.0
  3
block 204
  1

  0
INSERT
  5
624
330
61F
100
AcDbEntity
  8
cotas
100
AcDbBlockReference
  2
block 205
 10
0.0
 20
0.0
 30
0.0
  0
INSERT
  5
62C
330
61F
100
AcDbEntity
  8
cotas
100
AcDbBlockReference
  2
block 206
 10
0.0
 20
0.0
 30
0.0
  0
INSERT
  5
634
330
61F
100
AcDbEntity
  8
cotas
100
AcDbBlockReference
  2
block 207
 10
0.0
 20
0.0
 30
0.0
  0
INSERT
  5
63C
330
61F
100
AcDbEntity
  8
cotas
100
AcDbBlockReference
  2
block 208
 10
0.0
 20
0.0
 30
0.0
  0
INSERT
  5
644
330
61F
100
AcDbEntity
  8
cotas
100
AcDbBlockReference
  2
block 209
 10
0.0
 20
0.0
 30
0.0
  0
INSERT
  5
64F
330
61F
100
AcDbEntity
  8
cotas
100
AcDbBlockReference
  2
block 210
 10
0.0
 20
0.0
 30
0.0
  0
INSERT
  5
65A
330
61F
100
AcDbEntity
  8
cotas
100
AcDbBlockReference
  2
block 211
 10
0.0
 20
0.0
 30
0.0
  0
INSERT
  5
65F
330
61F
100
AcDbEntity
  8
cotas
100
AcDbBlockReference
  2
block 212
 10
0.0
 20
0.0
 30
0.0
  0
INSERT
  5
667
330
61F
100
AcDbEntity
  8
cotas
100
AcDbBlockReference
  2
block 213
 10
0.0
 20
0.0
 30
0.0
  0
INSERT
  5
66F
330
61F
100
AcDbEntity
  8
cotas
100
AcDbBlockReference
  2
block 214
 10
0.0
 20
0.0
 30
0.0
  0
ENDBLK
  5
622
330
61F
100
AcDbEntity
  8
0
100
AcDbBlockEnd
  0
BLOCK
  5
625
330
623
100
AcDbEntity
  8
0
100
AcDbBlockBegin
  2
block 205
 70
     0
 71
     0
 10
0.0
 20
0.0
 30
0.0
  3
block 205
  1

  0
POLYLINE
  5
627
330
623
100
AcDbEntity
  8
cotas
 62
   253
420
 11382189
370
    25
100
AcDb2dPolyline
 66
     1
 10
0.0
 20
0.0
 30
0.0
  0
VERTEX
  5
628
330
627
100
AcDbEntity
  8
cotas
 62
   253
420
 11382189
370
    25
100
AcDbVertex
100
AcDb2dVertex
 10
77.62548828125
 20
75.201171875
 30
0.0
  0
VERTEX
  5
629
330
627
100
AcDbEntity
  8
cotas
 62
   253
420
 11382189
370
    25
100
AcDbVertex
100
AcDb2dVertex
 10
47.1083984375
 20
75.201171875
 30
0.0
  0
SEQEND
  5
62A
330
627
100
AcDbEntity
  8
cotas
370
    25
  0
ENDBLK
  5
626
330
623
100
AcDbEntity
  8
0
100
AcDbBlockEnd
  0
BLOCK
  5
62D
330
62B
100
AcDbEntity
  8
0
100
AcDbBlockBegin
  2
block 206
 70
     0
 71
     0
 10
0.0
 20
0.0
 30
0.0
  3
block 206
  1

  0
POLYLINE
  5
62F
330
62B
100
AcDbEntity
  8
cotas
 62
   253
420
 11382189
370
    25
100
AcDb2dPolyline
 66
     1
 10
0.0
 20
0.0
 30
0.0
  0
VERTEX
  5
630
330
62F
100
AcDbEntity
  8
cotas
 62
   253
420
 11382189
370
    25
100
AcDbVertex
100
AcDb2dVertex
 10
86.2705078125
 20
60.99609375
 30
0.0
  0
VERTEX
  5
631
330
62F
100
AcDbEntity
  8
cotas
 62
   253
420
 11382189
370
    25
100
AcDbVertex
100
AcDb2dVertex
 10
47.1083984375
 20
60.99609375
 30
0.0
  0
SEQEND
  5
632
330
62F
100
AcDbEntity
  8
cotas
370
    25
  0
ENDBLK
  5
62E
330
62B
100
AcDbEntity
  8
0
100
AcDbBlockEnd
  0
BLOCK
  5
635
330
633
100
AcDbEntity
  8
0
100
AcDbBlockBegin
  2
block 207
 70
     0
 71
     0
 10
0.0
 20
0.0
 30
0.0
  3
block 207
  1

  0
POLYLINE
  5
637
330
633
100
AcDbEntity
  8
cotas
 62
   253
420
 11382189
370
    25
100
AcDb2dPolyline
 66
     1
 10
0.0
 20
0.0
 30
0.0
  0
VERTEX
  5
638
330
637
100
AcDbEntity
  8
cotas
 62
   253
420
 11382189
370
    25
100
AcDbVertex
100
AcDb2dVertex
 10
50.34619140625
 20
79.734375
 30
0.0
  0
VERTEX
  5
639
330
637
100
AcDbEntity
  8
cotas
 62
   253
420
 11382189
370
    25
100
AcDbVertex
100
AcDb2dVertex
 10
50.34619140625
 20
84.267578125
 30
0.0
  0
SEQEND
  5
63A
330
637
100
AcDbEntity
  8
cotas
370
    25
  0
ENDBLK
  5
636
330
633
100
AcDbEntity
  8
0
100
AcDbBlockEnd
  0
BLOCK
  5
63D
330
63B
100
AcDbEntity
  8
0
100
AcDbBlockBegin
  2
block 208
 70
     0
 71
     0
 10
0.0
 20
0.0
 30
0.0
  3
block 208
  1

  0
POLYLINE
  5
63F
330
63B
100
AcDbEntity
  8
cotas
 62
   253
420
 11382189
370
    25
100
AcDb2dPolyline
 66
     1
 10
0.0
 20
0.0
 30
0.0
  0
VERTEX
  5
640
330
63F
100
AcDbEntity
  8
cotas
 62
   253
420
 11382189
370
    25
100
AcDbVertex
100
AcDb2dVertex
 10
50.34619140625
 20
56.462890625
 30
0.0
  0
VERTEX
  5
641
330
63F
100
AcDbEntity
  8
cotas
 62
   253
420
 11382189
370
    25
100
AcDbVertex
100
AcDb2dVertex
 10
50.34619140625
 20
51.9296875
 30
0.0
  0
SEQEND
  5
642
330
63F
100
AcDbEntity
  8
cotas
370
    25
  0
ENDBLK
  5
63E
330
63B
100
AcDbEntity
  8
0
100
AcDbBlockEnd
  0
BLOCK
  5
645
330
643
100
AcDbEntity
  8
0
100
AcDbBlockBegin
  2
block 209
 70
     0
 71
     0
 10
0.0
 20
0.0
 30
0.0
  3
block 209
  1

  0
POLYLINE
  5
647
330
643
100
AcDbEntity
  8
cotas
370
     0
100
AcDb2dPolyline
 66
     1
 10
0.0
 20
0.0
 30
0.0
  0
VERTEX
  5
648
330
647
100
AcDbEntity
  8
cotas
370
     0
100
AcDbVertex
100
AcDb2dVertex
 10
49.5908203125
 20
79.734375
 30
0.0
  0
VERTEX
  5
649
330
647
100
AcDbEntity
  8
cotas
370
     0
100
AcDbVertex
100
AcDb2dVertex
 10
51.1015625
 20
79.734375
 30
0.0
  0
VERTEX
  5
64A
330
647
100
AcDbEntity
  8
cotas
370
     0
100
AcDbVertex
100
AcDb2dVertex
 10
50.34619140625
 20
75.201171875
 30
0.0
  0
VERTEX
  5
64B
330
647
100
AcDbEntity
  8
cotas
370
     0
100
AcDbVertex
100
AcDb2dVertex
 10
49.5908203125
 20
79.734375
 30
0.0
  0
SEQEND
  5
64C
330
647
100
AcDbEntity
  8
cotas
370
     0
  0
HATCH
  5
64D
330
643
100
AcDbEntity
  8
cotas
 62
   253
420
 11382189
100
AcDbHatch
 10
0.0
 20
0.0
 30
0.0
210
0.0
220
0.0
230
1.0
  2
SOLID
 70
     1
 71
     0
 91
        1
 92
        1
 93
        3
 72
     1
 10
49.5908203125
 20
79.734375
 11
51.1015625
 21
79.734375
 72
     1
 10
51.1015625
 20
79.734375
 11
50.34619140625
 21
75.201171875
 72
     1
 10
50.34619140625
 20
75.201171875
 11
49.5908203125
 21
79.734375
 97
        0
 75
     2
 76
     1
 98
        0
  0
ENDBLK
  5
646
330
643
100
AcDbEntity
  8
0
100
AcDbBlockEnd
  0
BLOCK
  5
650
330
64E
100
AcDbEntity
  8
0
100
AcDbBlockBegin
  2
block 210
 70
     0
 71
     0
 10
0.0
 20
0.0
 30
0.0
  3
block 210
  1

  0
POLYLINE
  5
652
330
64E
100
AcDbEntity
  8
cotas
370
     0
100
AcDb2dPolyline
 66
     1
 10
0.0
 20
0.0
 30
0.0
  0
VERTEX
  5
653
330
652
100
AcDbEntity
  8
cotas
370
     0
100
AcDbVertex
100
AcDb2dVertex
 10
49.5908203125
 20
56.462890625
 30
0.0
  0
VERTEX
  5
654
330
652
100
AcDbEntity
  8
cotas
370
     0
100
AcDbVertex
100
AcDb2dVertex
 10
51.1015625
 20
56.462890625
 30
0.0
  0
VERTEX
  5
655
330
652
100
AcDbEntity
  8
cotas
370
     0
100
AcDbVertex
100
AcDb2dVertex
 10
50.34619140625
 20
60.99609375
 30
0.0
  0
VERTEX
  5
656
330
652
100
AcDbEntity
  8
cotas
370
     0
100
AcDbVertex
100
AcDb2dVertex
 10
49.5908203125
 20
56.462890625
 30
0.0
  0
SEQEND
  5
657
330
652
100
AcDbEntity
  8
cotas
370
     0
  0
HATCH
  5
658
330
64E
100
AcDbEntity
  8
cotas
 62
   253
420
 11382189
100
AcDbHatch
 10
0.0
 20
0.0
 30
0.0
210
0.0
220
0.0
230
1.0
  2
SOLID
 70
     1
 71
     0
 91
        1
 92
        1
 93
        3
 72
     1
 10
49.5908203125
 20
56.462890625
 11
51.1015625
 21
56.462890625
 72
     1
 10
51.1015625
 20
56.462890625
 11
50.34619140625
 21
60.99609375
 72
     1
 10
50.34619140625
 20
60.99609375
 11
49.5908203125
 21
56.462890625
 97
        0
 75
     2
 76
     1
 98
        0
  0
ENDBLK
  5
651
330
64E
100
AcDbEntity
  8
0
100
AcDbBlockEnd
  0
BLOCK
  5
65B
330
659
100
AcDbEntity
  8
0
100
AcDbBlockBegin
  2
block 211
 70
     0
 71
     0
 10
0.0
 20
0.0
 30
0.0
  3
block 211
  1

  0
MTEXT
  5
65D
330
659
100
AcDbEntity
  8
cotas
 62
   253
420
 11382189
100
AcDbMText
 10
33.40576171875
 20
63.2470703125
 30
0.0
 40
9.713628692626953
 41
0.0
 71
     7
 72
     1
  1
\fArial|b0|i0|c0|p34;\W1;R1/2"
 73
     1
 44
1.0
  0
ENDBLK
  5
65C
330
659
100
AcDbEntity
  8
0
100
AcDbBlockEnd
  0
BLOCK
  5
660
330
65E
100
AcDbEntity
  8
0
100
AcDbBlockBegin
  2
block 212
 70
     0
 71
     0
 10
0.0
 20
0.0
 30
0.0
  3
block 212
  1

  0
POLYLINE
  5
662
330
65E
100
AcDbEntity
  8
cotas
 62
   253
420
 11382189
370
    25
100
AcDb2dPolyline
 66
     1
 10
0.0
 20
0.0
 30
0.0
  0
VERTEX
  5
663
330
662
100
AcDbEntity
  8
cotas
 62
   253
420
 11382189
370
    25
100
AcDbVertex
100
AcDb2dVertex
 10
84.10107421875
 20
75.201171875
 30
0.0
  0
VERTEX
  5
664
330
662
100
AcDbEntity
  8
cotas
 62
   253
420
 11382189
370
    25
100
AcDbVertex
100
AcDb2dVertex
 10
84.10107421875
 20
75.201171875
 30
0.0
  0
SEQEND
  5
665
330
662
100
AcDbEntity
  8
cotas
370
    25
  0
ENDBLK
  5
661
330
65E
100
AcDbEntity
  8
0
100
AcDbBlockEnd
  0
BLOCK
  5
668
330
666
100
AcDbEntity
  8
0
100
AcDbBlockBegin
  2
block 213
 70
     0
 71
     0
 10
0.0
 20
0.0
 30
0.0
  3
block 213
  1

  0
POLYLINE
  5
66A
330
666
100
AcDbEntity
  8
cotas
 62
   253
420
 11382189
370
    25
100
AcDb2dPolyline
 66
     1
 10
0.0
 20
0.0
 30
0.0
  0
VERTEX
  5
66B
330
66A
100
AcDbEntity
  8
cotas
 62
   253
420
 11382189
370
    25
100
AcDbVertex
100
AcDb2dVertex
 10
92.74609375
 20
60.99609375
 30
0.0
  0
VERTEX
  5
66C
330
66A
100
AcDbEntity
  8
cotas
 62
   253
420
 11382189
370
    25
100
AcDbVertex
100
AcDb2dVertex
 10
92.74609375
 20
60.99609375
 30
0.0
  0
SEQEND
  5
66D
330
66A
100
AcDbEntity
  8
cotas
370
    25
  0
ENDBLK
  5
669
330
666
100
AcDbEntity
  8
0
100
AcDbBlockEnd
  0
BLOCK
  5
670
330
66E
100
AcDbEntity
  8
0
100
AcDbBlockBegin
  2
block 214
 70
     0
 71
     0
 10
0.0
 20
0.0
 30
0.0
  3
block 214
  1

  0
POLYLINE
  5
672
330
66E
100
AcDbEntity
  8
cotas
 62
   253
420
 11382189
370
    25
100
AcDb2dPolyline
 66
     1
 10
0.0
 20
0.0
 30
0.0
  0
VERTEX
  5
673
330
672
100
AcDbEntity
  8
cotas
 62
   253
420
 11382189
370
    25
100
AcDbVertex
100
AcDb2dVertex
 10
50.34619140625
 20
60.99609375
 30
0.0
  0
VERTEX
  5
674
330
672
100
AcDbEntity
  8
cotas
 62
   253
420
 11382189
370
    25
100
AcDbVertex
100
AcDb2dVertex
 10
50.34619140625
 20
60.99609375
 30
0.0
  0
SEQEND
  5
675
330
672
100
AcDbEntity
  8
cotas
370
    25
  0
ENDBLK
  5
671
330
66E
100
AcDbEntity
  8
0
100
AcDbBlockEnd
  0
BLOCK
  5
678
330
676
100
AcDbEntity
  8
0
100
AcDbBlockBegin
  2
block 215
 70
     0
 71
     0
 10
0.0
 20
0.0
 30
0.0
  3
block 215
  1

  0
INSERT
  5
67B
330
676
100
AcDbEntity
  8
cotas
100
AcDbBlockReference
  2
block 216
 10
0.0
 20
0.0
 30
0.0
  0
INSERT
  5
683
330
676
100
AcDbEntity
  8
cotas
100
AcDbBlockReference
  2
block 217
 10
0.0
 20
0.0
 30
0.0
  0
INSERT
  5
68B
330
676
100
AcDbEntity
  8
cotas
100
AcDbBlockReference
  2
block 218
 10
0.0
 20
0.0
 30
0.0
  0
INSERT
  5
693
330
676
100
AcDbEntity
  8
cotas
100
AcDbBlockReference
  2
block 219
 10
0.0
 20
0.0
 30
0.0
  0
INSERT
  5
69B
330
676
100
AcDbEntity
  8
cotas
100
AcDbBlockReference
  2
block 220
 10
0.0
 20
0.0
 30
0.0
  0
INSERT
  5
6A3
330
676
100
AcDbEntity
  8
cotas
100
AcDbBlockReference
  2
block 221
 10
0.0
 20
0.0
 30
0.0
  0
INSERT
  5
6AB
330
676
100
AcDbEntity
  8
cotas
100
AcDbBlockReference
  2
block 222
 10
0.0
 20
0.0
 30
0.0
  0
INSERT
  5
6B6
330
676
100
AcDbEntity
  8
cotas
100
AcDbBlockReference
  2
block 223
 10
0.0
 20
0.0
 30
0.0
  0
INSERT
  5
6C1
330
676
100
AcDbEntity
  8
cotas
100
AcDbBlockReference
  2
block 224
 10
0.0
 20
0.0
 30
0.0
  0
INSERT
  5
6C6
330
676
100
AcDbEntity
  8
cotas
100
AcDbBlockReference
  2
block 225
 10
0.0
 20
0.0
 30
0.0
  0
INSERT
  5
6CE
330
676
100
AcDbEntity
  8
cotas
100
AcDbBlockReference
  2
block 226
 10
0.0
 20
0.0
 30
0.0
  0
INSERT
  5
6D6
330
676
100
AcDbEntity
  8
cotas
100
AcDbBlockReference
  2
block 227
 10
0.0
 20
0.0
 30
0.0
  0
ENDBLK
  5
679
330
676
100
AcDbEntity
  8
0
100
AcDbBlockEnd
  0
BLOCK
  5
67C
330
67A
100
AcDbEntity
  8
0
100
AcDbBlockBegin
  2
block 216
 70
     0
 71
     0
 10
0.0
 20
0.0
 30
0.0
  3
block 216
  1

  0
POLYLINE
  5
67E
330
67A
100
AcDbEntity
  8
cotas
 62
   253
420
 11382189
370
    25
100
AcDb2dPolyline
 66
     1
 10
0.0
 20
0.0
 30
0.0
  0
VERTEX
  5
67F
330
67E
100
AcDbEntity
  8
cotas
 62
   253
420
 11382189
370
    25
100
AcDbVertex
100
AcDb2dVertex
 10
86.3212890625
 20
217.0615234375
 30
0.0
  0
VERTEX
  5
680
330
67E
100
AcDbEntity
  8
cotas
 62
   253
420
 11382189
370
    25
100
AcDbVertex
100
AcDb2dVertex
 10
58.8759765625
 20
217.0615234375
 30
0.0
  0
SEQEND
  5
681
330
67E
100
AcDbEntity
  8
cotas
370
    25
  0
ENDBLK
  5
67D
330
67A
100
AcDbEntity
  8
0
100
AcDbBlockEnd
  0
BLOCK
  5
684
330
682
100
AcDbEntity
  8
0
100
AcDbBlockBegin
  2
block 217
 70
     0
 71
     0
 10
0.0
 20
0.0
 30
0.0
  3
block 217
  1

  0
POLYLINE
  5
686
330
682
100
AcDbEntity
  8
cotas
 62
   253
420
 11382189
370
    25
100
AcDb2dPolyline
 66
     1
 10
0.0
 20
0.0
 30
0.0
  0
VERTEX
  5
687
330
686
100
AcDbEntity
  8
cotas
 62
   253
420
 11382189
370
    25
100
AcDbVertex
100
AcDb2dVertex
 10
85.5107421875
 20
202.8154296875
 30
0.0
  0
VERTEX
  5
688
330
686
100
AcDbEntity
  8
cotas
 62
   253
420
 11382189
370
    25
100
AcDbVertex
100
AcDb2dVertex
 10
58.8759765625
 20
202.8154296875
 30
0.0
  0
SEQEND
  5
689
330
686
100
AcDbEntity
  8
cotas
370
    25
  0
ENDBLK
  5
685
330
682
100
AcDbEntity
  8
0
100
AcDbBlockEnd
  0
BLOCK
  5
68C
330
68A
100
AcDbEntity
  8
0
100
AcDbBlockBegin
  2
block 218
 70
     0
 71
     0
 10
0.0
 20
0.0
 30
0.0
  3
block 218
  1

  0
POLYLINE
  5
68E
330
68A
100
AcDbEntity
  8
cotas
 62
   253
420
 11382189
370
    25
100
AcDb2dPolyline
 66
     1
 10
0.0
 20
0.0
 30
0.0
  0
VERTEX
  5
68F
330
68E
100
AcDbEntity
  8
cotas
 62
   253
420
 11382189
370
    25
100
AcDbVertex
100
AcDb2dVertex
 10
62.11376953125
 20
198.2822265625
 30
0.0
  0
VERTEX
  5
690
330
68E
100
AcDbEntity
  8
cotas
 62
   253
420
 11382189
370
    25
100
AcDbVertex
100
AcDb2dVertex
 10
62.11376953125
 20
193.7490234375
 30
0.0
  0
SEQEND
  5
691
330
68E
100
AcDbEntity
  8
cotas
370
    25
  0
ENDBLK
  5
68D
330
68A
100
AcDbEntity
  8
0
100
AcDbBlockEnd
  0
BLOCK
  5
694
330
692
100
AcDbEntity
  8
0
100
AcDbBlockBegin
  2
block 219
 70
     0
 71
     0
 10
0.0
 20
0.0
 30
0.0
  3
block 219
  1

  0
POLYLINE
  5
696
330
692
100
AcDbEntity
  8
cotas
 62
   253
420
 11382189
370
    25
100
AcDb2dPolyline
 66
     1
 10
0.0
 20
0.0
 30
0.0
  0
VERTEX
  5
697
330
696
100
AcDbEntity
  8
cotas
 62
   253
420
 11382189
370
    25
100
AcDbVertex
100
AcDb2dVertex
 10
62.11376953125
 20
221.5947265625
 30
0.0
  0
VERTEX
  5
698
330
696
100
AcDbEntity
  8
cotas
 62
   253
420
 11382189
370
    25
100
AcDbVertex
100
AcDb2dVertex
 10
62.11376953125
 20
264.5771484375
 30
0.0
  0
SEQEND
  5
699
330
696
100
AcDbEntity
  8
cotas
370
    25
  0
ENDBLK
  5
695
330
692
100
AcDbEntity
  8
0
100
AcDbBlockEnd
  0
BLOCK
  5
69C
330
69A
100
AcDbEntity
  8
0
100
AcDbBlockBegin
  2
block 220
 70
     0
 71
     0
 10
0.0
 20
0.0
 30
0.0
  3
block 220
  1

  0
POLYLINE
  5
69E
330
69A
100
AcDbEntity
  8
cotas
 62
   253
420
 11382189
370
    25
100
AcDb2dPolyline
 66
     1
 10
0.0
 20
0.0
 30
0.0
  0
VERTEX
  5
69F
330
69E
100
AcDbEntity
  8
cotas
 62
   253
420
 11382189
370
    25
100
AcDbVertex
100
AcDb2dVertex
 10
62.11376953125
 20
264.5771484375
 30
0.0
  0
VERTEX
  5
6A0
330
69E
100
AcDbEntity
  8
cotas
 62
   253
420
 11382189
370
    25
100
AcDbVertex
100
AcDb2dVertex
 10
66.64697265625
 20
264.5771484375
 30
0.0
  0
SEQEND
  5
6A1
330
69E
100
AcDbEntity
  8
cotas
370
    25
  0
ENDBLK
  5
69D
330
69A
100
AcDbEntity
  8
0
100
AcDbBlockEnd
  0
BLOCK
  5
6A4
330
6A2
100
AcDbEntity
  8
0
100
AcDbBlockBegin
  2
block 221
 70
     0
 71
     0
 10
0.0
 20
0.0
 30
0.0
  3
block 221
  1

  0
POLYLINE
  5
6A6
330
6A2
100
AcDbEntity
  8
cotas
 62
   253
420
 11382189
370
    25
100
AcDb2dPolyline
 66
     1
 10
0.0
 20
0.0
 30
0.0
  0
VERTEX
  5
6A7
330
6A6
100
AcDbEntity
  8
cotas
 62
   253
420
 11382189
370
    25
100
AcDbVertex
100
AcDb2dVertex
 10
62.11376953125
 20
202.8154296875
 30
0.0
  0
VERTEX
  5
6A8
330
6A6
100
AcDbEntity
  8
cotas
 62
   253
420
 11382189
370
    25
100
AcDbVertex
100
AcDb2dVertex
 10
62.11376953125
 20
217.0615234375
 30
0.0
  0
SEQEND
  5
6A9
330
6A6
100
AcDbEntity
  8
cotas
370
    25
  0
ENDBLK
  5
6A5
330
6A2
100
AcDbEntity
  8
0
100
AcDbBlockEnd
  0
BLOCK
  5
6AC
330
6AA
100
AcDbEntity
  8
0
100
AcDbBlockBegin
  2
block 222
 70
     0
 71
     0
 10
0.0
 20
0.0
 30
0.0
  3
block 222
  1

  0
POLYLINE
  5
6AE
330
6AA
100
AcDbEntity
  8
cotas
370
     0
100
AcDb2dPolyline
 66
     1
 10
0.0
 20
0.0
 30
0.0
  0
VERTEX
  5
6AF
330
6AE
100
AcDbEntity
  8
cotas
370
     0
100
AcDbVertex
100
AcDb2dVertex
 10
61.3583984375
 20
198.2822265625
 30
0.0
  0
VERTEX
  5
6B0
330
6AE
100
AcDbEntity
  8
cotas
370
     0
100
AcDbVertex
100
AcDb2dVertex
 10
62.86962890625
 20
198.2822265625
 30
0.0
  0
VERTEX
  5
6B1
330
6AE
100
AcDbEntity
  8
cotas
370
     0
100
AcDbVertex
100
AcDb2dVertex
 10
62.11376953125
 20
202.8154296875
 30
0.0
  0
VERTEX
  5
6B2
330
6AE
100
AcDbEntity
  8
cotas
370
     0
100
AcDbVertex
100
AcDb2dVertex
 10
61.3583984375
 20
198.2822265625
 30
0.0
  0
SEQEND
  5
6B3
330
6AE
100
AcDbEntity
  8
cotas
370
     0
  0
HATCH
  5
6B4
330
6AA
100
AcDbEntity
  8
cotas
 62
   253
420
 11382189
100
AcDbHatch
 10
0.0
 20
0.0
 30
0.0
210
0.0
220
0.0
230
1.0
  2
SOLID
 70
     1
 71
     0
 91
        1
 92
        1
 93
        3
 72
     1
 10
61.3583984375
 20
198.2822265625
 11
62.86962890625
 21
198.2822265625
 72
     1
 10
62.86962890625
 20
198.2822265625
 11
62.11376953125
 21
202.8154296875
 72
     1
 10
62.11376953125
 20
202.8154296875
 11
61.3583984375
 21
198.2822265625
 97
        0
 75
     2
 76
     1
 98
        0
  0
ENDBLK
  5
6AD
330
6AA
100
AcDbEntity
  8
0
100
AcDbBlockEnd
  0
BLOCK
  5
6B7
330
6B5
100
AcDbEntity
  8
0
100
AcDbBlockBegin
  2
block 223
 70
     0
 71
     0
 10
0.0
 20
0.0
 30
0.0
  3
block 223
  1

  0
POLYLINE
  5
6B9
330
6B5
100
AcDbEntity
  8
cotas
370
     0
100
AcDb2dPolyline
 66
     1
 10
0.0
 20
0.0
 30
0.0
  0
VERTEX
  5
6BA
330
6B9
100
AcDbEntity
  8
cotas
370
     0
100
AcDbVertex
100
AcDb2dVertex
 10
61.3583984375
 20
221.5947265625
 30
0.0
  0
VERTEX
  5
6BB
330
6B9
100
AcDbEntity
  8
cotas
370
     0
100
AcDbVertex
100
AcDb2dVertex
 10
62.86962890625
 20
221.5947265625
 30
0.0
  0
VERTEX
  5
6BC
330
6B9
100
AcDbEntity
  8
cotas
370
     0
100
AcDbVertex
100
AcDb2dVertex
 10
62.11376953125
 20
217.0615234375
 30
0.0
  0
VERTEX
  5
6BD
330
6B9
100
AcDbEntity
  8
cotas
370
     0
100
AcDbVertex
100
AcDb2dVertex
 10
61.3583984375
 20
221.5947265625
 30
0.0
  0
SEQEND
  5
6BE
330
6B9
100
AcDbEntity
  8
cotas
370
     0
  0
HATCH
  5
6BF
330
6B5
100
AcDbEntity
  8
cotas
 62
   253
420
 11382189
100
AcDbHatch
 10
0.0
 20
0.0
 30
0.0
210
0.0
220
0.0
230
1.0
  2
SOLID
 70
     1
 71
     0
 91
        1
 92
        1
 93
        3
 72
     1
 10
61.3583984375
 20
221.5947265625
 11
62.86962890625
 21
221.5947265625
 72
     1
 10
62.86962890625
 20
221.5947265625
 11
62.11376953125
 21
217.0615234375
 72
     1
 10
62.11376953125
 20
217.0615234375
 11
61.3583984375
 21
221.5947265625
 97
        0
 75
     2
 76
     1
 98
        0
  0
ENDBLK
  5
6B8
330
6B5
100
AcDbEntity
  8
0
100
AcDbBlockEnd
  0
BLOCK
  5
6C2
330
6C0
100
AcDbEntity
  8
0
100
AcDbBlockBegin
  2
block 224
 70
     0
 71
     0
 10
0.0
 20
0.0
 30
0.0
  3
block 224
  1

  0
MTEXT
  5
6C4
330
6C0
100
AcDbEntity
  8
cotas
 62
   253
420
 11382189
100
AcDbMText
 10
75.60986328125
 20
259.7255859375
 30
0.0
 40
9.713628692626953
 41
0.0
 71
     7
 72
     1
  1
\fArial|b0|i0|c0|p34;\W1;R1/2"
 73
     1
 44
1.0
  0
ENDBLK
  5
6C3
330
6C0
100
AcDbEntity
  8
0
100
AcDbBlockEnd
  0
BLOCK
  5
6C7
330
6C5
100
AcDbEntity
  8
0
100
AcDbBlockBegin
  2
block 225
 70
     0
 71
     0
 10
0.0
 20
0.0
 30
0.0
  3
block 225
  1

  0
POLYLINE
  5
6C9
330
6C5
100
AcDbEntity
  8
cotas
 62
   253
420
 11382189
370
    25
100
AcDb2dPolyline
 66
     1
 10
0.0
 20
0.0
 30
0.0
  0
VERTEX
  5
6CA
330
6C9
100
AcDbEntity
  8
cotas
 62
   253
420
 11382189
370
    25
100
AcDbVertex
100
AcDb2dVertex
 10
92.796875
 20
217.0615234375
 30
0.0
  0
VERTEX
  5
6CB
330
6C9
100
AcDbEntity
  8
cotas
 62
   253
420
 11382189
370
    25
100
AcDbVertex
100
AcDb2dVertex
 10
92.796875
 20
217.0615234375
 30
0.0
  0
SEQEND
  5
6CC
330
6C9
100
AcDbEntity
  8
cotas
370
    25
  0
ENDBLK
  5
6C8
330
6C5
100
AcDbEntity
  8
0
100
AcDbBlockEnd
  0
BLOCK
  5
6CF
330
6CD
100
AcDbEntity
  8
0
100
AcDbBlockBegin
  2
block 226
 70
     0
 71
     0
 10
0.0
 20
0.0
 30
0.0
  3
block 226
  1

  0
POLYLINE
  5
6D1
330
6CD
100
AcDbEntity
  8
cotas
 62
   253
420
 11382189
370
    25
100
AcDb2dPolyline
 66
     1
 10
0.0
 20
0.0
 30
0.0
  0
VERTEX
  5
6D2
330
6D1
100
AcDbEntity
  8
cotas
 62
   253
420
 11382189
370
    25
100
AcDbVertex
100
AcDb2dVertex
 10
91.986328125
 20
202.8154296875
 30
0.0
  0
VERTEX
  5
6D3
330
6D1
100
AcDbEntity
  8
cotas
 62
   253
420
 11382189
370
    25
100
AcDbVertex
100
AcDb2dVertex
 10
91.986328125
 20
202.8154296875
 30
0.0
  0
SEQEND
  5
6D4
330
6D1
100
AcDbEntity
  8
cotas
370
    25
  0
ENDBLK
  5
6D0
330
6CD
100
AcDbEntity
  8
0
100
AcDbBlockEnd
  0
BLOCK
  5
6D7
330
6D5
100
AcDbEntity
  8
0
100
AcDbBlockBegin
  2
block 227
 70
     0
 71
     0
 10
0.0
 20
0.0
 30
0.0
  3
block 227
  1

  0
POLYLINE
  5
6D9
330
6D5
100
AcDbEntity
  8
cotas
 62
   253
420
 11382189
370
    25
100
AcDb2dPolyline
 66
     1
 10
0.0
 20
0.0
 30
0.0
  0
VERTEX
  5
6DA
330
6D9
100
AcDbEntity
  8
cotas
 62
   253
420
 11382189
370
    25
100
AcDbVertex
100
AcDb2dVertex
 10
62.11376953125
 20
202.8154296875
 30
0.0
  0
VERTEX
  5
6DB
330
6D9
100
AcDbEntity
  8
cotas
 62
   253
420
 11382189
370
    25
100
AcDbVertex
100
AcDb2dVertex
 10
62.11376953125
 20
202.8154296875
 30
0.0
  0
SEQEND
  5
6DC
330
6D9
100
AcDbEntity
  8
cotas
370
    25
  0
ENDBLK
  5
6D8
330
6D5
100
AcDbEntity
  8
0
100
AcDbBlockEnd
  0
ENDSEC
  0
SECTION
  2
ENTITIES
  0
INSERT
  5
3D
330
1F
100
AcDbEntity
  8
cuerpo
100
AcDbBlockReference
  2
block 2
 10
0.0
 20
0.0
 30
0.0
  0
INSERT
  5
42
330
1F
100
AcDbEntity
  8
cuerpo
100
AcDbBlockReference
  2
block 3
 10
0.0
 20
0.0
 30
0.0
  0
INSERT
  5
4A
330
1F
100
AcDbEntity
  8
cuerpo
100
AcDbBlockReference
  2
block 4
 10
0.0
 20
0.0
 30
0.0
  0
INSERT
  5
52
330
1F
100
AcDbEntity
  8
cuerpo
100
AcDbBlockReference
  2
block 5
 10
0.0
 20
0.0
 30
0.0
  0
INSERT
  5
5A
330
1F
100
AcDbEntity
  8
cuerpo
100
AcDbBlockReference
  2
block 6
 10
0.0
 20
0.0
 30
0.0
  0
INSERT
  5
62
330
1F
100
AcDbEntity
  8
cuerpo
100
AcDbBlockReference
  2
block 7
 10
0.0
 20
0.0
 30
0.0
  0
INSERT
  5
6A
330
1F
100
AcDbEntity
  8
cuerpo
100
AcDbBlockReference
  2
block 8
 10
0.0
 20
0.0
 30
0.0
  0
INSERT
  5
72
330
1F
100
AcDbEntity
  8
cuerpo
100
AcDbBlockReference
  2
block 9
 10
0.0
 20
0.0
 30
0.0
  0
INSERT
  5
7A
330
1F
100
AcDbEntity
  8
cuerpo
100
AcDbBlockReference
  2
block 10
 10
0.0
 20
0.0
 30
0.0
  0
INSERT
  5
82
330
1F
100
AcDbEntity
  8
cuerpo
100
AcDbBlockReference
  2
block 11
 10
0.0
 20
0.0
 30
0.0
  0
INSERT
  5
8A
330
1F
100
AcDbEntity
  8
cuerpo
100
AcDbBlockReference
  2
block 12
 10
0.0
 20
0.0
 30
0.0
  0
INSERT
  5
92
330
1F
100
AcDbEntity
  8
cuerpo
100
AcDbBlockReference
  2
block 13
 10
0.0
 20
0.0
 30
0.0
  0
INSERT
  5
9A
330
1F
100
AcDbEntity
  8
cuerpo
100
AcDbBlockReference
  2
block 14
 10
0.0
 20
0.0
 30
0.0
  0
INSERT
  5
A2
330
1F
100
AcDbEntity
  8
cuerpo
100
AcDbBlockReference
  2
block 15
 10
0.0
 20
0.0
 30
0.0
  0
INSERT
  5
AA
330
1F
100
AcDbEntity
  8
cuerpo
100
AcDbBlockReference
  2
block 16
 10
0.0
 20
0.0
 30
0.0
  0
INSERT
  5
B2
330
1F
100
AcDbEntity
  8
cuerpo
100
AcDbBlockReference
  2
block 17
 10
0.0
 20
0.0
 30
0.0
  0
INSERT
  5
BA
330
1F
100
AcDbEntity
  8
cuerpo
100
AcDbBlockReference
  2
block 18
 10
0.0
 20
0.0
 30
0.0
  0
INSERT
  5
C2
330
1F
100
AcDbEntity
  8
cuerpo
100
AcDbBlockReference
  2
block 19
 10
0.0
 20
0.0
 30
0.0
  0
INSERT
  5
CA
330
1F
100
AcDbEntity
  8
cuerpo
100
AcDbBlockReference
  2
block 20
 10
0.0
 20
0.0
 30
0.0
  0
INSERT
  5
D2
330
1F
100
AcDbEntity
  8
cuerpo
100
AcDbBlockReference
  2
block 21
 10
0.0
 20
0.0
 30
0.0
  0
INSERT
  5
D7
330
1F
100
AcDbEntity
  8
cuerpo
100
AcDbBlockReference
  2
block 22
 10
0.0
 20
0.0
 30
0.0
  0
INSERT
  5
DF
330
1F
100
AcDbEntity
  8
cuerpo
100
AcDbBlockReference
  2
block 23
 10
0.0
 20
0.0
 30
0.0
  0
INSERT
  5
E7
330
1F
100
AcDbEntity
  8
cuerpo
100
AcDbBlockReference
  2
block 24
 10
0.0
 20
0.0
 30
0.0
  0
INSERT
  5
EF
330
1F
100
AcDbEntity
  8
cuerpo
100
AcDbBlockReference
  2
block 25
 10
0.0
 20
0.0
 30
0.0
  0
INSERT
  5
F7
330
1F
100
AcDbEntity
  8
cuerpo
100
AcDbBlockReference
  2
block 26
 10
0.0
 20
0.0
 30
0.0
  0
INSERT
  5
FF
330
1F
100
AcDbEntity
  8
cuerpo
100
AcDbBlockReference
  2
block 27
 10
0.0
 20
0.0
 30
0.0
  0
INSERT
  5
107
330
1F
100
AcDbEntity
  8
cuerpo
100
AcDbBlockReference
  2
block 28
 10
0.0
 20
0.0
 30
0.0
  0
INSERT
  5
10F
330
1F
100
AcDbEntity
  8
cuerpo
100
AcDbBlockReference
  2
block 29
 10
0.0
 20
0.0
 30
0.0
  0
INSERT
  5
117
330
1F
100
AcDbEntity
  8
cuerpo
100
AcDbBlockReference
  2
block 30
 10
0.0
 20
0.0
 30
0.0
  0
INSERT
  5
11F
330
1F
100
AcDbEntity
  8
cuerpo
100
AcDbBlockReference
  2
block 31
 10
0.0
 20
0.0
 30
0.0
  0
INSERT
  5
127
330
1F
100
AcDbEntity
  8
cuerpo
100
AcDbBlockReference
  2
block 32
 10
0.0
 20
0.0
 30
0.0
  0
INSERT
  5
12F
330
1F
100
AcDbEntity
  8
cuerpo
100
AcDbBlockReference
  2
block 33
 10
0.0
 20
0.0
 30
0.0
  0
INSERT
  5
137
330
1F
100
AcDbEntity
  8
cuerpo
100
AcDbBlockReference
  2
block 34
 10
0.0
 20
0.0
 30
0.0
  0
INSERT
  5
13F
330
1F
100
AcDbEntity
  8
cuerpo
100
AcDbBlockReference
  2
block 35
 10
0.0
 20
0.0
 30
0.0
  0
INSERT
  5
147
330
1F
100
AcDbEntity
  8
cuerpo
100
AcDbBlockReference
  2
block 36
 10
0.0
 20
0.0
 30
0.0
  0
INSERT
  5
14F
330
1F
100
AcDbEntity
  8
cuerpo
100
AcDbBlockReference
  2
block 37
 10
0.0
 20
0.0
 30
0.0
  0
INSERT
  5
157
330
1F
100
AcDbEntity
  8
cuerpo
100
AcDbBlockReference
  2
block 38
 10
0.0
 20
0.0
 30
0.0
  0
INSERT
  5
15F
330
1F
100
AcDbEntity
  8
cuerpo
100
AcDbBlockReference
  2
block 39
 10
0.0
 20
0.0
 30
0.0
  0
INSERT
  5
167
330
1F
100
AcDbEntity
  8
cuerpo
100
AcDbBlockReference
  2
block 40
 10
0.0
 20
0.0
 30
0.0
  0
INSERT
  5
16F
330
1F
100
AcDbEntity
  8
cuerpo
100
AcDbBlockReference
  2
block 41
 10
0.0
 20
0.0
 30
0.0
  0
INSERT
  5
177
330
1F
100
AcDbEntity
  8
cuerpo
100
AcDbBlockReference
  2
block 42
 10
0.0
 20
0.0
 30
0.0
  0
INSERT
  5
17F
330
1F
100
AcDbEntity
  8
cuerpo
100
AcDbBlockReference
  2
block 43
 10
0.0
 20
0.0
 30
0.0
  0
INSERT
  5
184
330
1F
100
AcDbEntity
  8
cuerpo
100
AcDbBlockReference
  2
block 44
 10
0.0
 20
0.0
 30
0.0
  0
INSERT
  5
18C
330
1F
100
AcDbEntity
  8
cuerpo
100
AcDbBlockReference
  2
block 45
 10
0.0
 20
0.0
 30
0.0
  0
INSERT
  5
194
330
1F
100
AcDbEntity
  8
cuerpo
100
AcDbBlockReference
  2
block 46
 10
0.0
 20
0.0
 30
0.0
  0
INSERT
  5
199
330
1F
100
AcDbEntity
  8
cuerpo
100
AcDbBlockReference
  2
block 47
 10
0.0
 20
0.0
 30
0.0
  0
INSERT
  5
1A1
330
1F
100
AcDbEntity
  8
cuerpo
100
AcDbBlockReference
  2
block 48
 10
0.0
 20
0.0
 30
0.0
  0
INSERT
  5
1A6
330
1F
100
AcDbEntity
  8
cuerpo
100
AcDbBlockReference
  2
block 49
 10
0.0
 20
0.0
 30
0.0
  0
INSERT
  5
1AB
330
1F
100
AcDbEntity
  8
cuerpo
100
AcDbBlockReference
  2
block 50
 10
0.0
 20
0.0
 30
0.0
  0
INSERT
  5
1B3
330
1F
100
AcDbEntity
  8
cuerpo
100
AcDbBlockReference
  2
block 51
 10
0.0
 20
0.0
 30
0.0
  0
INSERT
  5
1BB
330
1F
100
AcDbEntity
  8
cuerpo
100
AcDbBlockReference
  2
block 52
 10
0.0
 20
0.0
 30
0.0
  0
INSERT
  5
1C0
330
1F
100
AcDbEntity
  8
cuerpo
100
AcDbBlockReference
  2
block 53
 10
0.0
 20
0.0
 30
0.0
  0
INSERT
  5
1C8
330
1F
100
AcDbEntity
  8
cuerpo
100
AcDbBlockReference
  2
block 54
 10
0.0
 20
0.0
 30
0.0
  0
INSERT
  5
1D0
330
1F
100
AcDbEntity
  8
cuerpo
100
AcDbBlockReference
  2
block 55
 10
0.0
 20
0.0
 30
0.0
  0
INSERT
  5
1D5
330
1F
100
AcDbEntity
  8
cuerpo
100
AcDbBlockReference
  2
block 56
 10
0.0
 20
0.0
 30
0.0
  0
INSERT
  5
1DD
330
1F
100
AcDbEntity
  8
cuerpo
100
AcDbBlockReference
  2
block 57
 10
0.0
 20
0.0
 30
0.0
  0
INSERT
  5
1E2
330
1F
100
AcDbEntity
  8
cuerpo
100
AcDbBlockReference
  2
block 58
 10
0.0
 20
0.0
 30
0.0
  0
INSERT
  5
1E7
330
1F
100
AcDbEntity
  8
cuerpo
100
AcDbBlockReference
  2
block 59
 10
0.0
 20
0.0
 30
0.0
  0
INSERT
  5
1EF
330
1F
100
AcDbEntity
  8
cuerpo
100
AcDbBlockReference
  2
block 60
 10
0.0
 20
0.0
 30
0.0
  0
INSERT
  5
1F7
330
1F
100
AcDbEntity
  8
cuerpo
100
AcDbBlockReference
  2
block 61
 10
0.0
 20
0.0
 30
0.0
  0
INSERT
  5
1FC
330
1F
100
AcDbEntity
  8
cuerpo
100
AcDbBlockReference
  2
block 62
 10
0.0
 20
0.0
 30
0.0
  0
INSERT
  5
204
330
1F
100
AcDbEntity
  8
cuerpo
100
AcDbBlockReference
  2
block 63
 10
0.0
 20
0.0
 30
0.0
  0
INSERT
  5
20C
330
1F
100
AcDbEntity
  8
cuerpo
100
AcDbBlockReference
  2
block 64
 10
0.0
 20
0.0
 30
0.0
  0
INSERT
  5
211
330
1F
100
AcDbEntity
  8
cuerpo
100
AcDbBlockReference
  2
block 65
 10
0.0
 20
0.0
 30
0.0
  0
INSERT
  5
219
330
1F
100
AcDbEntity
  8
cuerpo
100
AcDbBlockReference
  2
block 66
 10
0.0
 20
0.0
 30
0.0
  0
INSERT
  5
21E
330
1F
100
AcDbEntity
  8
cuerpo
100
AcDbBlockReference
  2
block 67
 10
0.0
 20
0.0
 30
0.0
  0
INSERT
  5
223
330
1F
100
AcDbEntity
  8
cuerpo
100
AcDbBlockReference
  2
block 68
 10
0.0
 20
0.0
 30
0.0
  0
INSERT
  5
228
330
1F
100
AcDbEntity
  8
cuerpo
100
AcDbBlockReference
  2
block 69
 10
0.0
 20
0.0
 30
0.0
  0
INSERT
  5
22D
330
1F
100
AcDbEntity
  8
cuerpo
100
AcDbBlockReference
  2
block 70
 10
0.0
 20
0.0
 30
0.0
  0
INSERT
  5
235
330
1F
100
AcDbEntity
  8
cuerpo
100
AcDbBlockReference
  2
block 71
 10
0.0
 20
0.0
 30
0.0
  0
INSERT
  5
23D
330
1F
100
AcDbEntity
  8
cuerpo
100
AcDbBlockReference
  2
block 72
 10
0.0
 20
0.0
 30
0.0
  0
INSERT
  5
245
330
1F
100
AcDbEntity
  8
cuerpo
100
AcDbBlockReference
  2
block 73
 10
0.0
 20
0.0
 30
0.0
  0
INSERT
  5
24A
330
1F
100
AcDbEntity
  8
cuerpo
100
AcDbBlockReference
  2
block 74
 10
0.0
 20
0.0
 30
0.0
  0
INSERT
  5
252
330
1F
100
AcDbEntity
  8
cuerpo
100
AcDbBlockReference
  2
block 75
 10
0.0
 20
0.0
 30
0.0
  0
INSERT
  5
257
330
1F
100
AcDbEntity
  8
cuerpo
100
AcDbBlockReference
  2
block 76
 10
0.0
 20
0.0
 30
0.0
  0
INSERT
  5
25F
330
1F
100
AcDbEntity
  8
cuerpo
100
AcDbBlockReference
  2
block 77
 10
0.0
 20
0.0
 30
0.0
  0
INSERT
  5
264
330
1F
100
AcDbEntity
  8
cuerpo
100
AcDbBlockReference
  2
block 78
 10
0.0
 20
0.0
 30
0.0
  0
INSERT
  5
26C
330
1F
100
AcDbEntity
  8
cuerpo
100
AcDbBlockReference
  2
block 79
 10
0.0
 20
0.0
 30
0.0
  0
INSERT
  5
274
330
1F
100
AcDbEntity
  8
cuerpo
100
AcDbBlockReference
  2
block 80
 10
0.0
 20
0.0
 30
0.0
  0
INSERT
  5
27C
330
1F
100
AcDbEntity
  8
cuerpo
100
AcDbBlockReference
  2
block 81
 10
0.0
 20
0.0
 30
0.0
  0
INSERT
  5
284
330
1F
100
AcDbEntity
  8
cuerpo
100
AcDbBlockReference
  2
block 82
 10
0.0
 20
0.0
 30
0.0
  0
INSERT
  5
289
330
1F
100
AcDbEntity
  8
cuerpo
100
AcDbBlockReference
  2
block 83
 10
0.0
 20
0.0
 30
0.0
  0
INSERT
  5
291
330
1F
100
AcDbEntity
  8
cuerpo
100
AcDbBlockReference
  2
block 84
 10
0.0
 20
0.0
 30
0.0
  0
INSERT
  5
299
330
1F
100
AcDbEntity
  8
cuerpo
100
AcDbBlockReference
  2
block 85
 10
0.0
 20
0.0
 30
0.0
  0
INSERT
  5
2A1
330
1F
100
AcDbEntity
  8
cuerpo
100
AcDbBlockReference
  2
block 86
 10
0.0
 20
0.0
 30
0.0
  0
INSERT
  5
2A9
330
1F
100
AcDbEntity
  8
cuerpo
100
AcDbBlockReference
  2
block 87
 10
0.0
 20
0.0
 30
0.0
  0
INSERT
  5
2AE
330
1F
100
AcDbEntity
  8
cuerpo
100
AcDbBlockReference
  2
block 88
 10
0.0
 20
0.0
 30
0.0
  0
INSERT
  5
2B3
330
1F
100
AcDbEntity
  8
cuerpo
100
AcDbBlockReference
  2
block 89
 10
0.0
 20
0.0
 30
0.0
  0
INSERT
  5
2BB
330
1F
100
AcDbEntity
  8
cuerpo
100
AcDbBlockReference
  2
block 90
 10
0.0
 20
0.0
 30
0.0
  0
INSERT
  5
2C3
330
1F
100
AcDbEntity
  8
cuerpo
100
AcDbBlockReference
  2
block 91
 10
0.0
 20
0.0
 30
0.0
  0
INSERT
  5
2CB
330
1F
100
AcDbEntity
  8
cuerpo
100
AcDbBlockReference
  2
block 92
 10
0.0
 20
0.0
 30
0.0
  0
INSERT
  5
2D3
330
1F
100
AcDbEntity
  8
cuerpo
100
AcDbBlockReference
  2
block 93
 10
0.0
 20
0.0
 30
0.0
  0
INSERT
  5
2D8
330
1F
100
AcDbEntity
  8
cuerpo
100
AcDbBlockReference
  2
block 94
 10
0.0
 20
0.0
 30
0.0
  0
INSERT
  5
2DD
330
1F
100
AcDbEntity
  8
cuerpo
100
AcDbBlockReference
  2
block 95
 10
0.0
 20
0.0
 30
0.0
  0
INSERT
  5
2E5
330
1F
100
AcDbEntity
  8
cuerpo
100
AcDbBlockReference
  2
block 96
 10
0.0
 20
0.0
 30
0.0
  0
INSERT
  5
2ED
330
1F
100
AcDbEntity
  8
cuerpo
100
AcDbBlockReference
  2
block 97
 10
0.0
 20
0.0
 30
0.0
  0
INSERT
  5
2F5
330
1F
100
AcDbEntity
  8
cuerpo
100
AcDbBlockReference
  2
block 98
 10
0.0
 20
0.0
 30
0.0
  0
INSERT
  5
2FD
330
1F
100
AcDbEntity
  8
cuerpo
100
AcDbBlockReference
  2
block 99
 10
0.0
 20
0.0
 30
0.0
  0
INSERT
  5
305
330
1F
100
AcDbEntity
  8
cuerpo
100
AcDbBlockReference
  2
block 100
 10
0.0
 20
0.0
 30
0.0
  0
INSERT
  5
30D
330
1F
100
AcDbEntity
  8
cuerpo
100
AcDbBlockReference
  2
block 101
 10
0.0
 20
0.0
 30
0.0
  0
INSERT
  5
312
330
1F
100
AcDbEntity
  8
cuerpo
100
AcDbBlockReference
  2
block 102
 10
0.0
 20
0.0
 30
0.0
  0
INSERT
  5
31A
330
1F
100
AcDbEntity
  8
cuerpo
100
AcDbBlockReference
  2
block 103
 10
0.0
 20
0.0
 30
0.0
  0
INSERT
  5
31F
330
1F
100
AcDbEntity
  8
cuerpo
100
AcDbBlockReference
  2
block 104
 10
0.0
 20
0.0
 30
0.0
  0
INSERT
  5
327
330
1F
100
AcDbEntity
  8
cuerpo
100
AcDbBlockReference
  2
block 105
 10
0.0
 20
0.0
 30
0.0
  0
INSERT
  5
32C
330
1F
100
AcDbEntity
  8
cuerpo
100
AcDbBlockReference
  2
block 106
 10
0.0
 20
0.0
 30
0.0
  0
INSERT
  5
334
330
1F
100
AcDbEntity
  8
cuerpo
100
AcDbBlockReference
  2
block 107
 10
0.0
 20
0.0
 30
0.0
  0
INSERT
  5
33C
330
1F
100
AcDbEntity
  8
cuerpo
100
AcDbBlockReference
  2
block 108
 10
0.0
 20
0.0
 30
0.0
  0
INSERT
  5
344
330
1F
100
AcDbEntity
  8
cuerpo
100
AcDbBlockReference
  2
block 109
 10
0.0
 20
0.0
 30
0.0
  0
INSERT
  5
34C
330
1F
100
AcDbEntity
  8
cuerpo
100
AcDbBlockReference
  2
block 110
 10
0.0
 20
0.0
 30
0.0
  0
INSERT
  5
351
330
1F
100
AcDbEntity
  8
cuerpo
100
AcDbBlockReference
  2
block 111
 10
0.0
 20
0.0
 30
0.0
  0
INSERT
  5
359
330
1F
100
AcDbEntity
  8
cuerpo
100
AcDbBlockReference
  2
block 112
 10
0.0
 20
0.0
 30
0.0
  0
INSERT
  5
361
330
1F
100
AcDbEntity
  8
cuerpo
100
AcDbBlockReference
  2
block 113
 10
0.0
 20
0.0
 30
0.0
  0
INSERT
  5
369
330
1F
100
AcDbEntity
  8
cuerpo
100
AcDbBlockReference
  2
block 114
 10
0.0
 20
0.0
 30
0.0
  0
INSERT
  5
371
330
1F
100
AcDbEntity
  8
cuerpo
100
AcDbBlockReference
  2
block 115
 10
0.0
 20
0.0
 30
0.0
  0
INSERT
  5
376
330
1F
100
AcDbEntity
  8
cuerpo
100
AcDbBlockReference
  2
block 116
 10
0.0
 20
0.0
 30
0.0
  0
INSERT
  5
37B
330
1F
100
AcDbEntity
  8
cuerpo
100
AcDbBlockReference
  2
block 117
 10
0.0
 20
0.0
 30
0.0
  0
INSERT
  5
383
330
1F
100
AcDbEntity
  8
cuerpo
100
AcDbBlockReference
  2
block 118
 10
0.0
 20
0.0
 30
0.0
  0
INSERT
  5
38B
330
1F
100
AcDbEntity
  8
cuerpo
100
AcDbBlockReference
  2
block 119
 10
0.0
 20
0.0
 30
0.0
  0
INSERT
  5
393
330
1F
100
AcDbEntity
  8
cuerpo
100
AcDbBlockReference
  2
block 120
 10
0.0
 20
0.0
 30
0.0
  0
INSERT
  5
39B
330
1F
100
AcDbEntity
  8
cuerpo
100
AcDbBlockReference
  2
block 121
 10
0.0
 20
0.0
 30
0.0
  0
INSERT
  5
3A0
330
1F
100
AcDbEntity
  8
cuerpo
100
AcDbBlockReference
  2
block 122
 10
0.0
 20
0.0
 30
0.0
  0
INSERT
  5
3A5
330
1F
100
AcDbEntity
  8
cuerpo
100
AcDbBlockReference
  2
block 123
 10
0.0
 20
0.0
 30
0.0
  0
INSERT
  5
3AD
330
1F
100
AcDbEntity
  8
cuerpo
100
AcDbBlockReference
  2
block 124
 10
0.0
 20
0.0
 30
0.0
  0
INSERT
  5
3B5
330
1F
100
AcDbEntity
  8
cuerpo
100
AcDbBlockReference
  2
block 125
 10
0.0
 20
0.0
 30
0.0
  0
INSERT
  5
3BD
330
1F
100
AcDbEntity
  8
cuerpo
100
AcDbBlockReference
  2
block 126
 10
0.0
 20
0.0
 30
0.0
  0
INSERT
  5
3C5
330
1F
100
AcDbEntity
  8
cuerpo
100
AcDbBlockReference
  2
block 127
 10
0.0
 20
0.0
 30
0.0
  0
INSERT
  5
3CD
330
1F
100
AcDbEntity
  8
cuerpo
100
AcDbBlockReference
  2
block 128
 10
0.0
 20
0.0
 30
0.0
  0
INSERT
  5
3D5
330
1F
100
AcDbEntity
  8
cuerpo
100
AcDbBlockReference
  2
block 129
 10
0.0
 20
0.0
 30
0.0
  0
INSERT
  5
3DD
330
1F
100
AcDbEntity
  8
cuerpo
100
AcDbBlockReference
  2
block 130
 10
0.0
 20
0.0
 30
0.0
  0
INSERT
  5
3E5
330
1F
100
AcDbEntity
  8
cuerpo
100
AcDbBlockReference
  2
block 131
 10
0.0
 20
0.0
 30
0.0
  0
INSERT
  5
3ED
330
1F
100
AcDbEntity
  8
cuerpo
100
AcDbBlockReference
  2
block 132
 10
0.0
 20
0.0
 30
0.0
  0
INSERT
  5
3F5
330
1F
100
AcDbEntity
  8
cuerpo
100
AcDbBlockReference
  2
block 133
 10
0.0
 20
0.0
 30
0.0
  0
INSERT
  5
3FA
330
1F
100
AcDbEntity
  8
cuerpo
100
AcDbBlockReference
  2
block 134
 10
0.0
 20
0.0
 30
0.0
  0
INSERT
  5
402
330
1F
100
AcDbEntity
  8
cuerpo
100
AcDbBlockReference
  2
block 135
 10
0.0
 20
0.0
 30
0.0
  0
INSERT
  5
40A
330
1F
100
AcDbEntity
  8
cuerpo
100
AcDbBlockReference
  2
block 136
 10
0.0
 20
0.0
 30
0.0
  0
INSERT
  5
412
330
1F
100
AcDbEntity
  8
cuerpo
100
AcDbBlockReference
  2
block 137
 10
0.0
 20
0.0
 30
0.0
  0
INSERT
  5
41A
330
1F
100
AcDbEntity
  8
cuerpo
100
AcDbBlockReference
  2
block 138
 10
0.0
 20
0.0
 30
0.0
  0
INSERT
  5
422
330
1F
100
AcDbEntity
  8
cuerpo
100
AcDbBlockReference
  2
block 139
 10
0.0
 20
0.0
 30
0.0
  0
INSERT
  5
42A
330
1F
100
AcDbEntity
  8
cuerpo
100
AcDbBlockReference
  2
block 140
 10
0.0
 20
0.0
 30
0.0
  0
INSERT
  5
432
330
1F
100
AcDbEntity
  8
cuerpo
100
AcDbBlockReference
  2
block 141
 10
0.0
 20
0.0
 30
0.0
  0
INSERT
  5
43A
330
1F
100
AcDbEntity
  8
cuerpo
100
AcDbBlockReference
  2
block 142
 10
0.0
 20
0.0
 30
0.0
  0
INSERT
  5
442
330
1F
100
AcDbEntity
  8
cuerpo
100
AcDbBlockReference
  2
block 143
 10
0.0
 20
0.0
 30
0.0
  0
INSERT
  5
44A
330
1F
100
AcDbEntity
  8
cuerpo
100
AcDbBlockReference
  2
block 144
 10
0.0
 20
0.0
 30
0.0
  0
INSERT
  5
452
330
1F
100
AcDbEntity
  8
cuerpo
100
AcDbBlockReference
  2
block 145
 10
0.0
 20
0.0
 30
0.0
  0
INSERT
  5
457
330
1F
100
AcDbEntity
  8
cuerpo
100
AcDbBlockReference
  2
block 146
 10
0.0
 20
0.0
 30
0.0
  0
INSERT
  5
45D
330
1F
100
AcDbEntity
  8
cotas
100
AcDbBlockReference
  2
block 147
 10
0.0
 20
0.0
 30
0.0
  0
INSERT
  5
4B4
330
1F
100
AcDbEntity
  8
cotas
100
AcDbBlockReference
  2
block 158
 10
0.0
 20
0.0
 30
0.0
  0
INSERT
  5
50B
330
1F
100
AcDbEntity
  8
cotas
100
AcDbBlockReference
  2
block 169
 10
0.0
 20
0.0
 30
0.0
  0
INSERT
  5
562
330
1F
100
AcDbEntity
  8
cotas
100
AcDbBlockReference
  2
block 180
 10
0.0
 20
0.0
 30
0.0
  0
INSERT
  5
5B9
330
1F
100
AcDbEntity
  8
cotas
100
AcDbBlockReference
  2
block 191
 10
0.0
 20
0.0
 30
0.0
  0
INSERT
  5
620
330
1F
100
AcDbEntity
  8
cotas
100
AcDbBlockReference
  2
block 204
 10
0.0
 20
0.0
 30
0.0
  0
INSERT
  5
677
330
1F
100
AcDbEntity
  8
cotas
100
AcDbBlockReference
  2
block 215
 10
0.0
 20
0.0
 30
0.0
  0
ENDSEC
  0
SECTION
  2
OBJECTS
  0
DICTIONARY
  5
C
330
0
100
AcDbDictionary
281
     1
  3
ACAD_GROUP
350
D
  3
ACAD_LAYOUT
350
1A
  3
ACAD_MLINESTYLE
350
17
  3
ACAD_PLOTSETTINGS
350
19
  3
ACAD_PLOTSTYLENAME
350
E
  3
ACAD_TABLESTYLE
350
6DD
  3
ACAD_VISUALSTYLE
350
2A
  0
DICTIONARY
  5
D
102
{ACAD_REACTORS
330
C
102
}
330
C
100
AcDbDictionary
281
     1
  0
DICTIONARY
  5
1A
102
{ACAD_REACTORS
330
C
102
}
330
C
100
AcDbDictionary
281
     1
  3
Layout1
350
1E
  3
Layout2
350
26
  3
Model
350
22
  0
DICTIONARY
  5
17
102
{ACAD_REACTORS
330
C
102
}
330
C
100
AcDbDictionary
281
     1
  3
Standard
350
18
  0
DICTIONARY
  5
19
102
{ACAD_REACTORS
330
C
102
}
330
C
100
AcDbDictionary
281
     1
  0
ACDBDICTIONARYWDFLT
  5
E
102
{ACAD_REACTORS
330
C
102
}
330
C
100
AcDbDictionary
281
     1
  3
Normal
350
F
100
AcDbDictionaryWithDefault
340
F
  0
DICTIONARY
  5
6DD
102
{ACAD_REACTORS
330
C
102
}
330
C
100
AcDbDictionary
281
     1
  0
DICTIONARY
  5
2A
102
{ACAD_REACTORS
330
C
102
}
330
C
100
AcDbDictionary
281
     1
  3
2dWireframe
350
2F
  3
3D Hidden
350
31
  3
3dWireframe
350
30
  3
Basic
350
32
  3
Brighten
350
36
  3
ColorChange
350
3A
  3
Conceptual
350
34
  3
Dim
350
35
  3
Facepattern
350
39
  3
Flat
350
2B
  3
FlatWithEdges
350
2C
  3
Gouraud
350
2D
  3
GouraudWithEdges
350
2E
  3
Linepattern
350
38
  3
Realistic
350
33
  3
Thicken
350
37
  0
LAYOUT
  5
1E
102
{ACAD_REACTORS
330
1A
102
}
330
1A
100
AcDbPlotSettings
  1

  2
none_device
  4

  6

 40
0.0
 41
0.0
 42
0.0
 43
0.0
 44
0.0
 45
0.0
 46
0.0
 47
0.0
 48
0.0
 49
0.0
140
0.0
141
0.0
142
1.0
143
1.0
 70
   688
 72
     0
 73
     0
 74
     5
  7

 75
    16
 76
     0
 77
     2
 78
   300
147
1.0
148
0.0
149
0.0
100
AcDbLayout
  1
Layout1
 70
     1
 71
     1
 10
0.0
 20
0.0
 11
12.0
 21
9.0
 12
0.0
 22
0.0
 32
0.0
 14
1.000000000000000E+20
 24
1.000000000000000E+20
 34
1.000000000000000E+20
 15
-1.000000000000000E+20
 25
-1.000000000000000E+20
 35
-1.000000000000000E+20
146
0.0
 13
0.0
 23
0.0
 33
0.0
 16
1.0
 26
0.0
 36
0.0
 17
0.0
 27
1.0
 37
0.0
 76
     0
330
1B
  0
LAYOUT
  5
26
102
{ACAD_REACTORS
330
1A
102
}
330
1A
100
AcDbPlotSettings
  1

  2
none_device
  4

  6

 40
0.0
 41
0.0
 42
0.0
 43
0.0
 44
0.0
 45
0.0
 46
0.0
 47
0.0
 48
0.0
 49
0.0
140
0.0
141
0.0
142
1.0
143
1.0
 70
   688
 72
     0
 73
     0
 74
     5
  7

 75
    16
 76
     0
 77
     2
 78
   300
147
1.0
148
0.0
149
0.0
100
AcDbLayout
  1
Layout2
 70
     1
 71
     2
 10
0.0
 20
0.0
 11
0.0
 21
0.0
 12
0.0
 22
0.0
 32
0.0
 14
0.0
 24
0.0
 34
0.0
 15
0.0
 25
0.0
 35
0.0
146
0.0
 13
0.0
 23
0.0
 33
0.0
 16
1.0
 26
0.0
 36
0.0
 17
0.0
 27
1.0
 37
0.0
 76
     0
330
23
  0
LAYOUT
  5
22
102
{ACAD_REACTORS
330
1A
102
}
330
1A
100
AcDbPlotSettings
  1

  2
none_device
  4

  6

 40
0.0
 41
0.0
 42
0.0
 43
0.0
 44
0.0
 45
0.0
 46
0.0
 47
0.0
 48
0.0
 49
0.0
140
0.0
141
0.0
142
1.0
143
1.0
 70
  1712
 72
     0
 73
     0
 74
     0
  7

 75
     0
 76
     0
 77
     2
 78
   300
147
1.0
148
0.0
149
0.0
100
AcDbLayout
  1
Model
 70
     1
 71
     0
 10
0.0
 20
0.0
 11
12.0
 21
9.0
 12
0.0
 22
0.0
 32
0.0
 14
1.000000000000000E+20
 24
1.000000000000000E+20
 34
1.000000000000000E+20
 15
-1.000000000000000E+20
 25
-1.000000000000000E+20
 35
-1.000000000000000E+20
146
0.0
 13
0.0
 23
0.0
 33
0.0
 16
1.0
 26
0.0
 36
0.0
 17
0.0
 27
1.0
 37
0.0
 76
     0
330
1F
331
29
  0
MLINESTYLE
  5
18
102
{ACAD_REACTORS
330
17
102
}
330
17
100
AcDbMlineStyle
  2
Standard
 70
     0
  3

 62
   256
 51
90.0
 52
90.0
 71
     2
 49
0.5
 62
   256
  6
BYLAYER
 49
-0.5
 62
   256
  6
BYLAYER
  0
ACDBPLACEHOLDER
  5
F
102
{ACAD_REACTORS
330
E
102
}
330
E
  0
VISUALSTYLE
  5
2F
102
{ACAD_REACTORS
330
2A
102
}
330
2A
100
AcDbVisualStyle
  2
2dWireframe
 70
     4
 71
     0
 72
     2
 73
     0
 90
        0
 40
-0.6
 41
-30.0
 62
     5
 63
     7
421
 16777215
 74
     1
 91
        4
 64
     7
 65
   257
 75
     1
175
     1
 42
1.0
 92
        0
 66
   257
 43
1.0
 76
     1
 77
     6
 78
     2
 67
     7
 79
     5
170
     0
171
     0
290
     0
174
     0
 93
        1
 44
0.0
173
     0
291
     0
 45
0.0
1001
ACAD
1000
AcDbSavedByObjectVersion
1070
     0
  0
VISUALSTYLE
  5
31
102
{ACAD_REACTORS
330
2A
102
}
330
2A
100
AcDbVisualStyle
  2
3D Hidden
 70
     6
 71
     1
 72
     2
 73
     2
 90
        0
 40
-0.6
 41
-30.0
 62
     5
 63
     7
421
 16777215
 74
     2
 91
        2
 64
     7
 65
   257
 75
     2
175
     1
 42
40.0
 92
        0
 66
   257
 43
1.0
 76
     1
 77
     6
 78
     2
 67
     7
 79
     3
170
     0
171
     0
290
     0
174
     0
 93
        1
 44
0.0
173
     0
291
     0
 45
0.0
1001
ACAD
1000
AcDbSavedByObjectVersion
1070
     0
  0
VISUALSTYLE
  5
30
102
{ACAD_REACTORS
330
2A
102
}
330
2A
100
AcDbVisualStyle
  2
3dWireframe
 70
     5
 71
     0
 72
     2
 73
     0
 90
        0
 40
-0.6
 41
-30.0
 62
     5
 63
     7
421
 16777215
 74
     1
 91
        4
 64
     7
 65
   257
 75
     1
175
     1
 42
1.0
 92
        0
 66
   257
 43
1.0
 76
     1
 77
     6
 78
     2
 67
     7
 79
     5
170
     0
171
     0
290
     0
174
     0
 93
        1
 44
0.0
173
     0
291
     0
 45
0.0
1001
ACAD
1000
AcDbSavedByObjectVersion
1070
     0
  0
VISUALSTYLE
  5
32
102
{ACAD_REACTORS
330
2A
102
}
330
2A
100
AcDbVisualStyle
  2
Basic
 70
     7
 71
     1
 72
     0
 73
     1
 90
        0
 40
-0.6
 41
-30.0
 62
     5
 63
     7
421
 16777215
 74
     0
 91
        4
 64
     7
 65
   257
 75
     1
175
     1
 42
1.0
 92
        8
 66
     7
 43
1.0
 76
     1
 77
     6
 78
     2
 67
     7
 79
     5
170
     0
171
     0
290
     0
174
     0
 93
        1
 44
0.0
173
     0
291
     1
 45
0.0
1001
ACAD
1000
AcDbSavedByObjectVersion
1070
     0
  0
VISUALSTYLE
  5
36
102
{ACAD_REACTORS
330
2A
102
}
330
2A
100
AcDbVisualStyle
  2
Brighten
 70
    12
 71
     2
 72
     2
 73
     0
 90
        0
 40
-0.6
 41
-30.0
 62
     5
 63
     7
421
 16777215
 74
     1
 91
        4
 64
     7
 65
   257
 75
     1
175
     1
 42
1.0
 92
        8
 66
     7
 43
1.0
 76
     1
 77
     6
 78
     2
 67
     7
 79
     5
170
     0
171
     0
290
     0
174
     0
 93
        1
 44
50.0
173
     0
291
     1
 45
0.0
1001
ACAD
1000
AcDbSavedByObjectVersion
1070
     0
  0
VISUALSTYLE
  5
3A
102
{ACAD_REACTORS
330
2A
102
}
330
2A
100
AcDbVisualStyle
  2
ColorChange
 70
    16
 71
     2
 72
     2
 73
     3
 90
        0
 40
-0.6
 41
-30.0
 62
     5
 63
     8
421
  8421504
 74
     1
 91
        4
 64
     7
 65
   257
 75
     1
175
     1
 42
1.0
 92
        8
 66
     8
424
  8421504
 43
1.0
 76
     1
 77
     6
 78
     2
 67
     7
 79
     5
170
     0
171
     0
290
     0
174
     0
 93
        1
 44
0.0
173
     0
291
     1
 45
0.0
1001
ACAD
1000
AcDbSavedByObjectVersion
1070
     0
  0
VISUALSTYLE
  5
34
102
{ACAD_REACTORS
330
2A
102
}
330
2A
100
AcDbVisualStyle
  2
Conceptual
 70
     9
 71
     3
 72
     2
 73
     0
 90
        0
 40
-0.6
 41
-30.0
 62
     5
 63
     7
421
 16777215
 74
     2
 91
        2
 64
     7
 65
   257
 75
     1
175
     1
 42
40.0
 92
        8
 66
     7
 43
1.0
 76
     1
 77
     6
 78
     2
 67
     7
 79
     3
170
     0
171
     0
290
     0
174
     0
 93
        1
 44
0.0
173
     0
291
     0
 45
0.0
1001
ACAD
1000
AcDbSavedByObjectVersion
1070
     0
  0
VISUALSTYLE
  5
35
102
{ACAD_REACTORS
330
2A
102
}
330
2A
100
AcDbVisualStyle
  2
Dim
 70
    11
 71
     2
 72
     2
 73
     0
 90
        0
 40
-0.6
 41
-30.0
 62
     5
 63
     7
421
 16777215
 74
     1
 91
        4
 64
     7
 65
   257
 75
     1
175
     1
 42
1.0
 92
        8
 66
     7
 43
1.0
 76
     1
 77
     6
 78
     2
 67
     7
 79
     5
170
     0
171
     0
290
     0
174
     0
 93
        1
 44
-50.0
173
     0
291
     1
 45
0.0
1001
ACAD
1000
AcDbSavedByObjectVersion
1070
     0
  0
VISUALSTYLE
  5
39
102
{ACAD_REACTORS
330
2A
102
}
330
2A
100
AcDbVisualStyle
  2
Facepattern
 70
    15
 71
     2
 72
     2
 73
     0
 90
        0
 40
-0.6
 41
-30.0
 62
     5
 63
     7
421
 16777215
 74
     1
 91
        4
 64
     7
 65
   257
 75
     1
175
     1
 42
1.0
 92
        8
 66
     7
 43
1.0
 76
     1
 77
     6
 78
     2
 67
     7
 79
     5
170
     0
171
     0
290
     0
174
     0
 93
        1
 44
0.0
173
     0
291
     1
 45
0.0
1001
ACAD
1000
AcDbSavedByObjectVersion
1070
     0
  0
VISUALSTYLE
  5
2B
102
{ACAD_REACTORS
330
2A
102
}
330
2A
100
AcDbVisualStyle
  2
Flat
 70
     0
 71
     2
 72
     1
 73
     1
 90
        2
 40
-0.6
 41
30.0
 62
     5
 63
     7
421
 16777215
 74
     0
 91
        4
 64
     7
 65
   257
 75
     1
175
     1
 42
1.0
 92
        8
 66
     7
 43
1.0
 76
     1
 77
     6
 78
     2
 67
     7
 79
     5
170
     0
171
     0
290
     0
174
     0
 93
       13
 44
0.0
173
     0
291
     1
 45
0.0
1001
ACAD
1000
AcDbSavedByObjectVersion
1070
     0
  0
VISUALSTYLE
  5
2C
102
{ACAD_REACTORS
330
2A
102
}
330
2A
100
AcDbVisualStyle
  2
FlatWithEdges
 70
     1
 71
     2
 72
     1
 73
     1
 90
        2
 40
-0.6
 41
30.0
 62
     5
 63
     7
421
 16777215
 74
     1
 91
        4
 64
     7
 65
   257
 75
     1
175
     1
 42
1.0
 92
        0
 66
   257
 43
1.0
 76
     1
 77
     6
 78
     2
 67
     7
 79
     5
170
     0
171
     0
290
     0
174
     0
 93
       13
 44
0.0
173
     0
291
     1
 45
0.0
1001
ACAD
1000
AcDbSavedByObjectVersion
1070
     0
  0
VISUALSTYLE
  5
2D
102
{ACAD_REACTORS
330
2A
102
}
330
2A
100
AcDbVisualStyle
  2
Gouraud
 70
     2
 71
     2
 72
     2
 73
     1
 90
        2
 40
-0.6
 41
30.0
 62
     5
 63
     7
421
 16777215
 74
     0
 91
        4
 64
     7
 65
   257
 75
     1
175
     1
 42
1.0
 92
        0
 66
     7
 43
1.0
 76
     1
 77
     6
 78
     2
 67
     7
 79
     5
170
     0
171
     0
290
     0
174
     0
 93
       13
 44
0.0
173
     0
291
     1
 45
0.0
1001
ACAD
1000
AcDbSavedByObjectVersion
1070
     0
  0
VISUALSTYLE
  5
2E
102
{ACAD_REACTORS
330
2A
102
}
330
2A
100
AcDbVisualStyle
  2
GouraudWithEdges
 70
     3
 71
     2
 72
     2
 73
     1
 90
        2
 40
-0.6
 41
30.0
 62
     5
 63
     7
421
 16777215
 74
     1
 91
        4
 64
     7
 65
   257
 75
     1
175
     1
 42
1.0
 92
        0
 66
   257
 43
1.0
 76
     1
 77
     6
 78
     2
 67
     7
 79
     5
170
     0
171
     0
290
     0
174
     0
 93
       13
 44
0.0
173
     0
291
     1
 45
0.0
1001
ACAD
1000
AcDbSavedByObjectVersion
1070
     0
  0
VISUALSTYLE
  5
38
102
{ACAD_REACTORS
330
2A
102
}
330
2A
100
AcDbVisualStyle
  2
Linepattern
 70
    14
 71
     2
 72
     2
 73
     0
 90
        0
 40
-0.6
 41
-30.0
 62
     5
 63
     7
421
 16777215
 74
     1
 91
        4
 64
     7
 65
   257
 75
     7
175
     7
 42
1.0
 92
        8
 66
     7
 43
1.0
 76
     1
 77
     6
 78
     2
 67
     7
 79
     5
170
     0
171
     0
290
     0
174
     0
 93
        1
 44
0.0
173
     0
291
     1
 45
0.0
1001
ACAD
1000
AcDbSavedByObjectVersion
1070
     0
  0
VISUALSTYLE
  5
33
102
{ACAD_REACTORS
330
2A
102
}
330
2A
100
AcDbVisualStyle
  2
Realistic
 70
     8
 71
     2
 72
     2
 73
     0
 90
        0
 40
-0.6
 41
-30.0
 62
     5
 63
     7
421
 16777215
 74
     1
 91
        0
 64
     7
 65
   257
 75
     1
175
     1
 42
1.0
 92
        8
 66
     8
424
  7895160
 43
1.0
 76
     1
 77
     6
 78
     2
 67
     7
 79
     5
170
     0
171
     0
290
     0
174
     0
 93
       13
 44
0.0
173
     0
291
     0
 45
0.0
1001
ACAD
1000
AcDbSavedByObjectVersion
1070
     0
  0
VISUALSTYLE
  5
37
102
{ACAD_REACTORS
330
2A
102
}
330
2A
100
AcDbVisualStyle
  2
Thicken
 70
    13
 71
     2
 72
     2
 73
     0
 90
        0
 40
-0.6
 41
-30.0
 62
     5
 63
     7
421
 16777215
 74
     1
 91
        4
 64
     7
 65
   257
 75
     1
175
     1
 42
1.0
 92
       12
 66
     7
 43
1.0
 76
     1
 77
     6
 78
     2
 67
     7
 79
     5
170
     0
171
     0
290
     0
174
     0
 93
        1
 44
0.0
173
     0
291
     1
 45
0.0
1001
ACAD
1000
AcDbSavedByObjectVersion
1070
     0
  0
ENDSEC
  0
EOF
