  0
SECTION
  2
HEADER
  9
$ACADVER
  1
AC1018
  9
$ACADMAINTVER
 70
     0
  9
$DWGCODEPAGE
  3
ANSI_1252
  9
$INSBASE
 10
0.0
 20
0.0
 30
0.0
  9
$EXTMIN
 10
1.000000000000000E+20
 20
1.000000000000000E+20
 30
1.000000000000000E+20
  9
$EXTMAX
 10
-1.000000000000000E+20
 20
-1.000000000000000E+20
 30
-1.000000000000000E+20
  9
$LIMMIN
 10
0.0
 20
0.0
  9
$LIMMAX
 10
12.0
 20
9.0
  9
$ORTHOMODE
 70
     0
  9
$REGENMODE
 70
     1
  9
$FILLMODE
 70
     1
  9
$QTEXTMODE
 70
     0
  9
$MIRRTEXT
 70
     1
  9
$LTSCALE
 40
1.0
  9
$ATTMODE
 70
     1
  9
$TEXTSIZE
 40
0.2
  9
$TRACEWID
 40
0.05
  9
$TEXTSTYLE
  7
Standard
  9
$CLAYER
  8
0
  9
$CELTYPE
  6
ByLayer
  9
$CECOLOR
 62
   256
  9
$CELTSCALE
 40
1.0
  9
$DISPSILH
 70
     0
  9
$DIMSCALE
 40
1.0
  9
$DIMASZ
 40
0.18
  9
$DIMEXO
 40
0.0625
  9
$DIMDLI
 40
0.38
  9
$DIMRND
 40
0.0
  9
$DIMDLE
 40
0.0
  9
$DIMEXE
 40
0.18
  9
$DIMTP
 40
0.0
  9
$DIMTM
 40
0.0
  9
$DIMTXT
 40
0.18
  9
$DIMCEN
 40
0.09
  9
$DIMTSZ
 40
0.0
  9
$DIMTOL
 70
     0
  9
$DIMLIM
 70
     0
  9
$DIMTIH
 70
     1
  9
$DIMTOH
 70
     1
  9
$DIMSE1
 70
     0
  9
$DIMSE2
 70
     0
  9
$DIMTAD
 70
     0
  9
$DIMZIN
 70
     0
  9
$DIMBLK
  1

  9
$DIMASO
 70
     1
  9
$DIMSHO
 70
     1
  9
$DIMPOST
  1

  9
$DIMAPOST
  1

  9
$DIMALT
 70
     0
  9
$DIMALTD
 70
     2
  9
$DIMALTF
 40
25.4
  9
$DIMLFAC
 40
1.0
  9
$DIMTOFL
 70
     0
  9
$DIMTVP
 40
0.0
  9
$DIMTIX
 70
     0
  9
$DIMSOXD
 70
     0
  9
$DIMSAH
 70
     0
  9
$DIMBLK1
  1

  9
$DIMBLK2
  1

  9
$DIMSTYLE
  2
Standard
  9
$DIMCLRD
 70
     0
  9
$DIMCLRE
 70
     0
  9
$DIMCLRT
 70
     0
  9
$DIMTFAC
 40
1.0
  9
$DIMGAP
 40
0.09
  9
$DIMJUST
 70
     0
  9
$DIMSD1
 70
     0
  9
$DIMSD2
 70
     0
  9
$DIMTOLJ
 70
     1
  9
$DIMTZIN
 70
     0
  9
$DIMALTZ
 70
     0
  9
$DIMALTTZ
 70
     0
  9
$DIMUPT
 70
     0
  9
$DIMDEC
 70
     4
  9
$DIMTDEC
 70
     4
  9
$DIMALTU
 70
     2
  9
$DIMALTTD
 70
     2
  9
$DIMTXSTY
  7
Standard
  9
$DIMAUNIT
 70
     0
  9
$DIMADEC
 70
     0
  9
$DIMALTRND
 40
0.0
  9
$DIMAZIN
 70
     0
  9
$DIMDSEP
 70
    46
  9
$DIMATFIT
 70
     3
  9
$DIMFRAC
 70
     0
  9
$DIMLDRBLK
  1

  9
$DIMLUNIT
 70
     2
  9
$DIMLWD
 70
    -2
  9
$DIMLWE
 70
    -2
  9
$DIMTMOVE
 70
     0
  9
$LUNITS
 70
     2
  9
$LUPREC
 70
     4
  9
$SKETCHINC
 40
0.1
  9
$FILLETRAD
 40
0.5
  9
$AUNITS
 70
     0
  9
$AUPREC
 70
     0
  9
$MENU
  1
.
  9
$ELEVATION
 40
0.0
  9
$PELEVATION
 40
0.0
  9
$THICKNESS
 40
0.0
  9
$LIMCHECK
 70
     0
  9
$CHAMFERA
 40
0.5
  9
$CHAMFERB
 40
0.5
  9
$CHAMFERC
 40
1.0
  9
$CHAMFERD
 40
0.0
  9
$SKPOLY
 70
     0
  9
$TDCREATE
 40
2457562.469589398
  9
$TDUCREATE
 40
2457562.386256065
  9
$TDUPDATE
 40
2457562.46958941
  9
$TDUUPDATE
 40
2457562.386256076
  9
$TDINDWG
 40
0.0000000116
  9
$TDUSRTIMER
 40
0.0000000116
  9
$USRTIMER
 70
     1
  9
$ANGBASE
 50
0.0
  9
$ANGDIR
 70
     0
  9
$PDMODE
 70
     0
  9
$PDSIZE
 40
0.0
  9
$PLINEWID
 40
0.0
  9
$SPLFRAME
 70
     0
  9
$SPLINETYPE
 70
     6
  9
$SPLINESEGS
 70
     8
  9
$HANDSEED
  5
757
  9
$SURFTAB1
 70
     6
  9
$SURFTAB2
 70
     6
  9
$SURFTYPE
 70
     6
  9
$SURFU
 70
     6
  9
$SURFV
 70
     6
  9
$UCSBASE
  2

  9
$UCSNAME
  2

  9
$UCSORG
 10
0.0
 20
0.0
 30
0.0
  9
$UCSXDIR
 10
1.0
 20
0.0
 30
0.0
  9
$UCSYDIR
 10
0.0
 20
1.0
 30
0.0
  9
$UCSORTHOREF
  2

  9
$UCSORTHOVIEW
 70
     0
  9
$UCSORGTOP
 10
0.0
 20
0.0
 30
0.0
  9
$UCSORGBOTTOM
 10
0.0
 20
0.0
 30
0.0
  9
$UCSORGLEFT
 10
0.0
 20
0.0
 30
0.0
  9
$UCSORGRIGHT
 10
0.0
 20
0.0
 30
0.0
  9
$UCSORGFRONT
 10
0.0
 20
0.0
 30
0.0
  9
$UCSORGBACK
 10
0.0
 20
0.0
 30
0.0
  9
$PUCSBASE
  2

  9
$PUCSNAME
  2

  9
$PUCSORG
 10
0.0
 20
0.0
 30
0.0
  9
$PUCSXDIR
 10
1.0
 20
0.0
 30
0.0
  9
$PUCSYDIR
 10
0.0
 20
1.0
 30
0.0
  9
$PUCSORTHOREF
  2

  9
$PUCSORTHOVIEW
 70
     0
  9
$PUCSORGTOP
 10
0.0
 20
0.0
 30
0.0
  9
$PUCSORGBOTTOM
 10
0.0
 20
0.0
 30
0.0
  9
$PUCSORGLEFT
 10
0.0
 20
0.0
 30
0.0
  9
$PUCSORGRIGHT
 10
0.0
 20
0.0
 30
0.0
  9
$PUCSORGFRONT
 10
0.0
 20
0.0
 30
0.0
  9
$PUCSORGBACK
 10
0.0
 20
0.0
 30
0.0
  9
$USERI1
 70
     0
  9
$USERI2
 70
     0
  9
$USERI3
 70
     0
  9
$USERI4
 70
     0
  9
$USERI5
 70
     0
  9
$USERR1
 40
0.0
  9
$USERR2
 40
0.0
  9
$USERR3
 40
0.0
  9
$USERR4
 40
0.0
  9
$USERR5
 40
0.0
  9
$WORLDVIEW
 70
     1
  9
$SHADEDGE
 70
     3
  9
$SHADEDIF
 70
    70
  9
$TILEMODE
 70
     1
  9
$MAXACTVP
 70
    64
  9
$PINSBASE
 10
0.0
 20
0.0
 30
0.0
  9
$PLIMCHECK
 70
     0
  9
$PEXTMIN
 10
1.000000000000000E+20
 20
1.000000000000000E+20
 30
1.000000000000000E+20
  9
$PEXTMAX
 10
-1.000000000000000E+20
 20
-1.000000000000000E+20
 30
-1.000000000000000E+20
  9
$PLIMMIN
 10
0.0
 20
0.0
  9
$PLIMMAX
 10
12.0
 20
9.0
  9
$UNITMODE
 70
     0
  9
$VISRETAIN
 70
     1
  9
$PLINEGEN
 70
     0
  9
$PSLTSCALE
 70
     1
  9
$TREEDEPTH
 70
  3020
  9
$CMLSTYLE
  2
Standard
  9
$CMLJUST
 70
     0
  9
$CMLSCALE
 40
1.0
  9
$PROXYGRAPHICS
 70
     1
  9
$MEASUREMENT
 70
     0
  9
$CELWEIGHT
370
    -1
  9
$ENDCAPS
280
     0
  9
$JOINSTYLE
280
     0
  9
$LWDISPLAY
290
     1
  9
$INSUNITS
 70
     1
  9
$HYPERLINKBASE
  1

  9
$STYLESHEET
  1

  9
$XEDIT
290
     1
  9
$CEPSNTYPE
380
     0
  9
$PSTYLEMODE
290
     1
  9
$FINGERPRINTGUID
  2
{6D45BE79-0843-47C2-8CE2-8743D98C8726}
  9
$VERSIONGUID
  2
{FAEB1C32-E019-11D5-929B-00C0DF256EC4}
  9
$EXTNAMES
290
     1
  9
$PSVPSCALE
 40
0.0
  9
$OLESTARTUP
290
     0
  9
$SORTENTS
280
   127
  9
$INDEXCTL
280
     0
  9
$HIDETEXT
280
     1
  9
$XCLIPFRAME
290
     0
  9
$HALOGAP
280
     0
  9
$OBSCOLOR
 70
   257
  9
$OBSLTYPE
280
     0
  9
$INTERSECTIONDISPLAY
280
     0
  9
$INTERSECTIONCOLOR
 70
   257
  9
$DIMASSOC
280
     2
  9
$PROJECTNAME
  1

  0
ENDSEC
  0
SECTION
  2
CLASSES
  0
CLASS
  1
ACDBDICTIONARYWDFLT
  2
AcDbDictionaryWithDefault
  3
ObjectDBX Classes
 90
        0
 91
        3
280
     0
281
     0
  0
CLASS
  1
VISUALSTYLE
  2
AcDbVisualStyle
  3
ObjectDBX Classes
 90
     4095
 91
        3
280
     0
281
     0
  0
ENDSEC
  0
SECTION
  2
TABLES
  0
TABLE
  2
VPORT
  5
8
330
0
100
AcDbSymbolTable
 70
     1
  0
VPORT
  5
29
330
8
100
AcDbSymbolTableRecord
100
AcDbViewportTableRecord
  2
*Active
 70
     0
 10
0.0
 20
0.0
 11
1.0
 21
1.0
 12
0.0
 22
0.0
 13
0.0
 23
0.0
 14
0.5
 24
0.5
 15
0.5
 25
0.5
 16
0.0
 26
0.0
 36
1.0
 17
40.2166666566125
 27
60.67777776260834
 37
0.0
 40
121.3555555252167
 41
0.6627906976744187
 42
50.0
 43
0.0
 44
0.0
 50
0.0
 51
0.0
 71
     0
 72
   100
 73
     1
 74
     3
 75
     0
 76
     0
 77
     0
 78
     0
281
     0
 65
     1
110
0.0
120
0.0
130
0.0
111
1.0
121
0.0
131
0.0
112
0.0
122
1.0
132
0.0
 79
     0
146
0.0
  0
ENDTAB
  0
TABLE
  2
LTYPE
  5
5
330
0
100
AcDbSymbolTable
 70
     5
  0
LTYPE
  5
14
330
5
100
AcDbSymbolTableRecord
100
AcDbLinetypeTableRecord
  2
ByBlock
 70
     0
  3

 72
    65
 73
     0
 40
0.0
  0
LTYPE
  5
15
330
5
100
AcDbSymbolTableRecord
100
AcDbLinetypeTableRecord
  2
ByLayer
 70
     0
  3

 72
    65
 73
     0
 40
0.0
  0
LTYPE
  5
16
330
5
100
AcDbSymbolTableRecord
100
AcDbLinetypeTableRecord
  2
Continuous
 70
     0
  3
Solid line
 72
    65
 73
     0
 40
0.0
  0
LTYPE
  5
6D9
330
5
100
AcDbSymbolTableRecord
100
AcDbLinetypeTableRecord
  2
AI-Linetype-1
 70
     0
  3
Adobe Illustrator Linetype No. 1
 72
    65
 73
     4
 40
1.187511858395152
 49
0.2964760776281913
 74
     0
 49
-0.5929521552563827
 74
     0
 49
0.2964760776281913
 74
     0
 49
-0.0016075478823872
 74
     0
  0
LTYPE
  5
6E2
330
5
100
AcDbSymbolTableRecord
100
AcDbLinetypeTableRecord
  2
AI-Linetype-2
 70
     0
  3
Adobe Illustrator Linetype No. 2
 72
    65
 73
     4
 40
1.187511858395152
 49
0.2964760776281913
 74
     0
 49
-0.5929521552563827
 74
     0
 49
0.2964760776281913
 74
     0
 49
-0.0016075478823872
 74
     0
  0
LTYPE
  5
6EB
330
5
100
AcDbSymbolTableRecord
100
AcDbLinetypeTableRecord
  2
AI-Linetype-3
 70
     0
  3
Adobe Illustrator Linetype No. 3
 72
    65
 73
     4
 40
1.187511858395152
 49
0.2964760776281913
 74
     0
 49
-0.5929521552563827
 74
     0
 49
0.2964760776281913
 74
     0
 49
-0.0016075478823872
 74
     0
  0
LTYPE
  5
6F4
330
5
100
AcDbSymbolTableRecord
100
AcDbLinetypeTableRecord
  2
AI-Linetype-4
 70
     0
  3
Adobe Illustrator Linetype No. 4
 72
    65
 73
     4
 40
1.187511858395152
 49
0.2964760776281913
 74
     0
 49
-0.5929521552563827
 74
     0
 49
0.2964760776281913
 74
     0
 49
-0.0016075478823872
 74
     0
  0
ENDTAB
  0
TABLE
  2
LAYER
  5
2
330
0
100
AcDbSymbolTable
 70
     3
  0
LAYER
  5
10
330
2
100
AcDbSymbolTableRecord
100
AcDbLayerTableRecord
  2
0
 70
     0
 62
     7
  6
Continuous
370
    -3
390
F
  0
LAYER
  5
3B
330
2
100
AcDbSymbolTableRecord
100
AcDbLayerTableRecord
  2
cuerpo
 70
     0
 62
     7
  6
Continuous
370
    -3
390
F
  0
LAYER
  5
463
330
2
100
AcDbSymbolTableRecord
100
AcDbLayerTableRecord
  2
cotas
 70
     1
 62
     7
  6
Continuous
370
    -3
390
F
  0
ENDTAB
  0
TABLE
  2
STYLE
  5
3
330
0
100
AcDbSymbolTable
 70
     1
  0
STYLE
  5
11
330
3
100
AcDbSymbolTableRecord
100
AcDbTextStyleTableRecord
  2
Standard
 70
     0
 40
0.0
 41
1.0
 50
0.0
 71
     0
 42
0.2
  3
txt
  4

  0
ENDTAB
  0
TABLE
  2
VIEW
  5
6
330
0
100
AcDbSymbolTable
 70
     0
  0
ENDTAB
  0
TABLE
  2
UCS
  5
7
330
0
100
AcDbSymbolTable
 70
     0
  0
ENDTAB
  0
TABLE
  2
APPID
  5
9
330
0
100
AcDbSymbolTable
 70
     1
  0
APPID
  5
12
330
9
100
AcDbSymbolTableRecord
100
AcDbRegAppTableRecord
  2
ACAD
 70
     0
  0
ENDTAB
  0
TABLE
  2
DIMSTYLE
  5
A
330
0
100
AcDbSymbolTable
 70
     1
100
AcDbDimStyleTable
  0
DIMSTYLE
105
27
330
A
100
AcDbSymbolTableRecord
100
AcDbDimStyleTableRecord
  2
Standard
 70
     0
340
11
  0
ENDTAB
  0
TABLE
  2
BLOCK_RECORD
  5
1
330
0
100
AcDbSymbolTable
 70
   235
  0
BLOCK_RECORD
  5
1F
330
1
100
AcDbSymbolTableRecord
100
AcDbBlockTableRecord
  2
*Model_Space
340
22
  0
BLOCK_RECORD
  5
1B
330
1
100
AcDbSymbolTableRecord
100
AcDbBlockTableRecord
  2
*Paper_Space
340
1E
  0
BLOCK_RECORD
  5
23
330
1
100
AcDbSymbolTableRecord
100
AcDbBlockTableRecord
  2
*Paper_Space0
340
26
  0
BLOCK_RECORD
  5
3C
330
1
100
AcDbSymbolTableRecord
100
AcDbBlockTableRecord
  2
block 2
340
0
102
{BLKREFS
331
3D
102
}
  0
BLOCK_RECORD
  5
44
330
1
100
AcDbSymbolTableRecord
100
AcDbBlockTableRecord
  2
block 3
340
0
102
{BLKREFS
331
45
102
}
  0
BLOCK_RECORD
  5
4C
330
1
100
AcDbSymbolTableRecord
100
AcDbBlockTableRecord
  2
block 4
340
0
102
{BLKREFS
331
4D
102
}
  0
BLOCK_RECORD
  5
54
330
1
100
AcDbSymbolTableRecord
100
AcDbBlockTableRecord
  2
block 5
340
0
102
{BLKREFS
331
55
102
}
  0
BLOCK_RECORD
  5
5C
330
1
100
AcDbSymbolTableRecord
100
AcDbBlockTableRecord
  2
block 6
340
0
102
{BLKREFS
331
5D
102
}
  0
BLOCK_RECORD
  5
64
330
1
100
AcDbSymbolTableRecord
100
AcDbBlockTableRecord
  2
block 7
340
0
102
{BLKREFS
331
65
102
}
  0
BLOCK_RECORD
  5
6C
330
1
100
AcDbSymbolTableRecord
100
AcDbBlockTableRecord
  2
block 8
340
0
102
{BLKREFS
331
6D
102
}
  0
BLOCK_RECORD
  5
74
330
1
100
AcDbSymbolTableRecord
100
AcDbBlockTableRecord
  2
block 9
340
0
102
{BLKREFS
331
75
102
}
  0
BLOCK_RECORD
  5
7C
330
1
100
AcDbSymbolTableRecord
100
AcDbBlockTableRecord
  2
block 10
340
0
102
{BLKREFS
331
7D
102
}
  0
BLOCK_RECORD
  5
84
330
1
100
AcDbSymbolTableRecord
100
AcDbBlockTableRecord
  2
block 11
340
0
102
{BLKREFS
331
85
102
}
  0
BLOCK_RECORD
  5
8C
330
1
100
AcDbSymbolTableRecord
100
AcDbBlockTableRecord
  2
block 12
340
0
102
{BLKREFS
331
8D
102
}
  0
BLOCK_RECORD
  5
94
330
1
100
AcDbSymbolTableRecord
100
AcDbBlockTableRecord
  2
block 13
340
0
102
{BLKREFS
331
95
102
}
  0
BLOCK_RECORD
  5
9C
330
1
100
AcDbSymbolTableRecord
100
AcDbBlockTableRecord
  2
block 14
340
0
102
{BLKREFS
331
9D
102
}
  0
BLOCK_RECORD
  5
A4
330
1
100
AcDbSymbolTableRecord
100
AcDbBlockTableRecord
  2
block 15
340
0
102
{BLKREFS
331
A5
102
}
  0
BLOCK_RECORD
  5
AC
330
1
100
AcDbSymbolTableRecord
100
AcDbBlockTableRecord
  2
block 16
340
0
102
{BLKREFS
331
AD
102
}
  0
BLOCK_RECORD
  5
B4
330
1
100
AcDbSymbolTableRecord
100
AcDbBlockTableRecord
  2
block 17
340
0
102
{BLKREFS
331
B5
102
}
  0
BLOCK_RECORD
  5
BC
330
1
100
AcDbSymbolTableRecord
100
AcDbBlockTableRecord
  2
block 18
340
0
102
{BLKREFS
331
BD
102
}
  0
BLOCK_RECORD
  5
C4
330
1
100
AcDbSymbolTableRecord
100
AcDbBlockTableRecord
  2
block 19
340
0
102
{BLKREFS
331
C5
102
}
  0
BLOCK_RECORD
  5
CC
330
1
100
AcDbSymbolTableRecord
100
AcDbBlockTableRecord
  2
block 20
340
0
102
{BLKREFS
331
CD
102
}
  0
BLOCK_RECORD
  5
D4
330
1
100
AcDbSymbolTableRecord
100
AcDbBlockTableRecord
  2
block 21
340
0
102
{BLKREFS
331
D5
102
}
  0
BLOCK_RECORD
  5
DC
330
1
100
AcDbSymbolTableRecord
100
AcDbBlockTableRecord
  2
block 22
340
0
102
{BLKREFS
331
DD
102
}
  0
BLOCK_RECORD
  5
E4
330
1
100
AcDbSymbolTableRecord
100
AcDbBlockTableRecord
  2
block 23
340
0
102
{BLKREFS
331
E5
102
}
  0
BLOCK_RECORD
  5
EB
330
1
100
AcDbSymbolTableRecord
100
AcDbBlockTableRecord
  2
block 24
340
0
102
{BLKREFS
331
EC
102
}
  0
BLOCK_RECORD
  5
F3
330
1
100
AcDbSymbolTableRecord
100
AcDbBlockTableRecord
  2
block 25
340
0
102
{BLKREFS
331
F4
102
}
  0
BLOCK_RECORD
  5
FB
330
1
100
AcDbSymbolTableRecord
100
AcDbBlockTableRecord
  2
block 26
340
0
102
{BLKREFS
331
FC
102
}
  0
BLOCK_RECORD
  5
103
330
1
100
AcDbSymbolTableRecord
100
AcDbBlockTableRecord
  2
block 27
340
0
102
{BLKREFS
331
104
102
}
  0
BLOCK_RECORD
  5
10B
330
1
100
AcDbSymbolTableRecord
100
AcDbBlockTableRecord
  2
block 28
340
0
102
{BLKREFS
331
10C
102
}
  0
BLOCK_RECORD
  5
113
330
1
100
AcDbSymbolTableRecord
100
AcDbBlockTableRecord
  2
block 29
340
0
102
{BLKREFS
331
114
102
}
  0
BLOCK_RECORD
  5
11B
330
1
100
AcDbSymbolTableRecord
100
AcDbBlockTableRecord
  2
block 30
340
0
102
{BLKREFS
331
11C
102
}
  0
BLOCK_RECORD
  5
122
330
1
100
AcDbSymbolTableRecord
100
AcDbBlockTableRecord
  2
block 31
340
0
102
{BLKREFS
331
123
102
}
  0
BLOCK_RECORD
  5
12A
330
1
100
AcDbSymbolTableRecord
100
AcDbBlockTableRecord
  2
block 32
340
0
102
{BLKREFS
331
12B
102
}
  0
BLOCK_RECORD
  5
132
330
1
100
AcDbSymbolTableRecord
100
AcDbBlockTableRecord
  2
block 33
340
0
102
{BLKREFS
331
133
102
}
  0
BLOCK_RECORD
  5
13A
330
1
100
AcDbSymbolTableRecord
100
AcDbBlockTableRecord
  2
block 34
340
0
102
{BLKREFS
331
13B
102
}
  0
BLOCK_RECORD
  5
142
330
1
100
AcDbSymbolTableRecord
100
AcDbBlockTableRecord
  2
block 35
340
0
102
{BLKREFS
331
143
102
}
  0
BLOCK_RECORD
  5
14A
330
1
100
AcDbSymbolTableRecord
100
AcDbBlockTableRecord
  2
block 36
340
0
102
{BLKREFS
331
14B
102
}
  0
BLOCK_RECORD
  5
152
330
1
100
AcDbSymbolTableRecord
100
AcDbBlockTableRecord
  2
block 37
340
0
102
{BLKREFS
331
153
102
}
  0
BLOCK_RECORD
  5
15A
330
1
100
AcDbSymbolTableRecord
100
AcDbBlockTableRecord
  2
block 38
340
0
102
{BLKREFS
331
15B
102
}
  0
BLOCK_RECORD
  5
15F
330
1
100
AcDbSymbolTableRecord
100
AcDbBlockTableRecord
  2
block 39
340
0
102
{BLKREFS
331
160
102
}
  0
BLOCK_RECORD
  5
167
330
1
100
AcDbSymbolTableRecord
100
AcDbBlockTableRecord
  2
block 40
340
0
102
{BLKREFS
331
168
102
}
  0
BLOCK_RECORD
  5
16C
330
1
100
AcDbSymbolTableRecord
100
AcDbBlockTableRecord
  2
block 41
340
0
102
{BLKREFS
331
16D
102
}
  0
BLOCK_RECORD
  5
171
330
1
100
AcDbSymbolTableRecord
100
AcDbBlockTableRecord
  2
block 42
340
0
102
{BLKREFS
331
172
102
}
  0
BLOCK_RECORD
  5
179
330
1
100
AcDbSymbolTableRecord
100
AcDbBlockTableRecord
  2
block 43
340
0
102
{BLKREFS
331
17A
102
}
  0
BLOCK_RECORD
  5
181
330
1
100
AcDbSymbolTableRecord
100
AcDbBlockTableRecord
  2
block 44
340
0
102
{BLKREFS
331
182
102
}
  0
BLOCK_RECORD
  5
189
330
1
100
AcDbSymbolTableRecord
100
AcDbBlockTableRecord
  2
block 45
340
0
102
{BLKREFS
331
18A
102
}
  0
BLOCK_RECORD
  5
191
330
1
100
AcDbSymbolTableRecord
100
AcDbBlockTableRecord
  2
block 46
340
0
102
{BLKREFS
331
192
102
}
  0
BLOCK_RECORD
  5
199
330
1
100
AcDbSymbolTableRecord
100
AcDbBlockTableRecord
  2
block 47
340
0
102
{BLKREFS
331
19A
102
}
  0
BLOCK_RECORD
  5
19E
330
1
100
AcDbSymbolTableRecord
100
AcDbBlockTableRecord
  2
block 48
340
0
102
{BLKREFS
331
19F
102
}
  0
BLOCK_RECORD
  5
1A6
330
1
100
AcDbSymbolTableRecord
100
AcDbBlockTableRecord
  2
block 49
340
0
102
{BLKREFS
331
1A7
102
}
  0
BLOCK_RECORD
  5
1AE
330
1
100
AcDbSymbolTableRecord
100
AcDbBlockTableRecord
  2
block 50
340
0
102
{BLKREFS
331
1AF
102
}
  0
BLOCK_RECORD
  5
1B6
330
1
100
AcDbSymbolTableRecord
100
AcDbBlockTableRecord
  2
block 51
340
0
102
{BLKREFS
331
1B7
102
}
  0
BLOCK_RECORD
  5
1BE
330
1
100
AcDbSymbolTableRecord
100
AcDbBlockTableRecord
  2
block 52
340
0
102
{BLKREFS
331
1BF
102
}
  0
BLOCK_RECORD
  5
1C6
330
1
100
AcDbSymbolTableRecord
100
AcDbBlockTableRecord
  2
block 53
340
0
102
{BLKREFS
331
1C7
102
}
  0
BLOCK_RECORD
  5
1CE
330
1
100
AcDbSymbolTableRecord
100
AcDbBlockTableRecord
  2
block 54
340
0
102
{BLKREFS
331
1CF
102
}
  0
BLOCK_RECORD
  5
1D6
330
1
100
AcDbSymbolTableRecord
100
AcDbBlockTableRecord
  2
block 55
340
0
102
{BLKREFS
331
1D7
102
}
  0
BLOCK_RECORD
  5
1DE
330
1
100
AcDbSymbolTableRecord
100
AcDbBlockTableRecord
  2
block 56
340
0
102
{BLKREFS
331
1DF
102
}
  0
BLOCK_RECORD
  5
1E6
330
1
100
AcDbSymbolTableRecord
100
AcDbBlockTableRecord
  2
block 57
340
0
102
{BLKREFS
331
1E7
102
}
  0
BLOCK_RECORD
  5
1EE
330
1
100
AcDbSymbolTableRecord
100
AcDbBlockTableRecord
  2
block 58
340
0
102
{BLKREFS
331
1EF
102
}
  0
BLOCK_RECORD
  5
1F6
330
1
100
AcDbSymbolTableRecord
100
AcDbBlockTableRecord
  2
block 59
340
0
102
{BLKREFS
331
1F7
102
}
  0
BLOCK_RECORD
  5
1FB
330
1
100
AcDbSymbolTableRecord
100
AcDbBlockTableRecord
  2
block 60
340
0
102
{BLKREFS
331
1FC
102
}
  0
BLOCK_RECORD
  5
200
330
1
100
AcDbSymbolTableRecord
100
AcDbBlockTableRecord
  2
block 61
340
0
102
{BLKREFS
331
201
102
}
  0
BLOCK_RECORD
  5
208
330
1
100
AcDbSymbolTableRecord
100
AcDbBlockTableRecord
  2
block 62
340
0
102
{BLKREFS
331
209
102
}
  0
BLOCK_RECORD
  5
20D
330
1
100
AcDbSymbolTableRecord
100
AcDbBlockTableRecord
  2
block 63
340
0
102
{BLKREFS
331
20E
102
}
  0
BLOCK_RECORD
  5
212
330
1
100
AcDbSymbolTableRecord
100
AcDbBlockTableRecord
  2
block 64
340
0
102
{BLKREFS
331
213
102
}
  0
BLOCK_RECORD
  5
217
330
1
100
AcDbSymbolTableRecord
100
AcDbBlockTableRecord
  2
block 65
340
0
102
{BLKREFS
331
218
102
}
  0
BLOCK_RECORD
  5
21C
330
1
100
AcDbSymbolTableRecord
100
AcDbBlockTableRecord
  2
block 66
340
0
102
{BLKREFS
331
21D
102
}
  0
BLOCK_RECORD
  5
221
330
1
100
AcDbSymbolTableRecord
100
AcDbBlockTableRecord
  2
block 67
340
0
102
{BLKREFS
331
222
102
}
  0
BLOCK_RECORD
  5
226
330
1
100
AcDbSymbolTableRecord
100
AcDbBlockTableRecord
  2
block 68
340
0
102
{BLKREFS
331
227
102
}
  0
BLOCK_RECORD
  5
22B
330
1
100
AcDbSymbolTableRecord
100
AcDbBlockTableRecord
  2
block 69
340
0
102
{BLKREFS
331
22C
102
}
  0
BLOCK_RECORD
  5
233
330
1
100
AcDbSymbolTableRecord
100
AcDbBlockTableRecord
  2
block 70
340
0
102
{BLKREFS
331
234
102
}
  0
BLOCK_RECORD
  5
238
330
1
100
AcDbSymbolTableRecord
100
AcDbBlockTableRecord
  2
block 71
340
0
102
{BLKREFS
331
239
102
}
  0
BLOCK_RECORD
  5
240
330
1
100
AcDbSymbolTableRecord
100
AcDbBlockTableRecord
  2
block 72
340
0
102
{BLKREFS
331
241
102
}
  0
BLOCK_RECORD
  5
248
330
1
100
AcDbSymbolTableRecord
100
AcDbBlockTableRecord
  2
block 73
340
0
102
{BLKREFS
331
249
102
}
  0
BLOCK_RECORD
  5
24D
330
1
100
AcDbSymbolTableRecord
100
AcDbBlockTableRecord
  2
block 74
340
0
102
{BLKREFS
331
24E
102
}
  0
BLOCK_RECORD
  5
255
330
1
100
AcDbSymbolTableRecord
100
AcDbBlockTableRecord
  2
block 75
340
0
102
{BLKREFS
331
256
102
}
  0
BLOCK_RECORD
  5
25D
330
1
100
AcDbSymbolTableRecord
100
AcDbBlockTableRecord
  2
block 76
340
0
102
{BLKREFS
331
25E
102
}
  0
BLOCK_RECORD
  5
265
330
1
100
AcDbSymbolTableRecord
100
AcDbBlockTableRecord
  2
block 77
340
0
102
{BLKREFS
331
266
102
}
  0
BLOCK_RECORD
  5
26D
330
1
100
AcDbSymbolTableRecord
100
AcDbBlockTableRecord
  2
block 78
340
0
102
{BLKREFS
331
26E
102
}
  0
BLOCK_RECORD
  5
272
330
1
100
AcDbSymbolTableRecord
100
AcDbBlockTableRecord
  2
block 79
340
0
102
{BLKREFS
331
273
102
}
  0
BLOCK_RECORD
  5
27A
330
1
100
AcDbSymbolTableRecord
100
AcDbBlockTableRecord
  2
block 80
340
0
102
{BLKREFS
331
27B
102
}
  0
BLOCK_RECORD
  5
282
330
1
100
AcDbSymbolTableRecord
100
AcDbBlockTableRecord
  2
block 81
340
0
102
{BLKREFS
331
283
102
}
  0
BLOCK_RECORD
  5
28A
330
1
100
AcDbSymbolTableRecord
100
AcDbBlockTableRecord
  2
block 82
340
0
102
{BLKREFS
331
28B
102
}
  0
BLOCK_RECORD
  5
292
330
1
100
AcDbSymbolTableRecord
100
AcDbBlockTableRecord
  2
block 83
340
0
102
{BLKREFS
331
293
102
}
  0
BLOCK_RECORD
  5
29A
330
1
100
AcDbSymbolTableRecord
100
AcDbBlockTableRecord
  2
block 84
340
0
102
{BLKREFS
331
29B
102
}
  0
BLOCK_RECORD
  5
2A2
330
1
100
AcDbSymbolTableRecord
100
AcDbBlockTableRecord
  2
block 85
340
0
102
{BLKREFS
331
2A3
102
}
  0
BLOCK_RECORD
  5
2AA
330
1
100
AcDbSymbolTableRecord
100
AcDbBlockTableRecord
  2
block 86
340
0
102
{BLKREFS
331
2AB
102
}
  0
BLOCK_RECORD
  5
2B2
330
1
100
AcDbSymbolTableRecord
100
AcDbBlockTableRecord
  2
block 87
340
0
102
{BLKREFS
331
2B3
102
}
  0
BLOCK_RECORD
  5
2BA
330
1
100
AcDbSymbolTableRecord
100
AcDbBlockTableRecord
  2
block 88
340
0
102
{BLKREFS
331
2BB
102
}
  0
BLOCK_RECORD
  5
2C2
330
1
100
AcDbSymbolTableRecord
100
AcDbBlockTableRecord
  2
block 89
340
0
102
{BLKREFS
331
2C3
102
}
  0
BLOCK_RECORD
  5
2CA
330
1
100
AcDbSymbolTableRecord
100
AcDbBlockTableRecord
  2
block 90
340
0
102
{BLKREFS
331
2CB
102
}
  0
BLOCK_RECORD
  5
2D2
330
1
100
AcDbSymbolTableRecord
100
AcDbBlockTableRecord
  2
block 91
340
0
102
{BLKREFS
331
2D3
102
}
  0
BLOCK_RECORD
  5
2D7
330
1
100
AcDbSymbolTableRecord
100
AcDbBlockTableRecord
  2
block 92
340
0
102
{BLKREFS
331
2D8
102
}
  0
BLOCK_RECORD
  5
2DC
330
1
100
AcDbSymbolTableRecord
100
AcDbBlockTableRecord
  2
block 93
340
0
102
{BLKREFS
331
2DD
102
}
  0
BLOCK_RECORD
  5
2E4
330
1
100
AcDbSymbolTableRecord
100
AcDbBlockTableRecord
  2
block 94
340
0
102
{BLKREFS
331
2E5
102
}
  0
BLOCK_RECORD
  5
2EC
330
1
100
AcDbSymbolTableRecord
100
AcDbBlockTableRecord
  2
block 95
340
0
102
{BLKREFS
331
2ED
102
}
  0
BLOCK_RECORD
  5
2F4
330
1
100
AcDbSymbolTableRecord
100
AcDbBlockTableRecord
  2
block 96
340
0
102
{BLKREFS
331
2F5
102
}
  0
BLOCK_RECORD
  5
2F9
330
1
100
AcDbSymbolTableRecord
100
AcDbBlockTableRecord
  2
block 97
340
0
102
{BLKREFS
331
2FA
102
}
  0
BLOCK_RECORD
  5
301
330
1
100
AcDbSymbolTableRecord
100
AcDbBlockTableRecord
  2
block 98
340
0
102
{BLKREFS
331
302
102
}
  0
BLOCK_RECORD
  5
309
330
1
100
AcDbSymbolTableRecord
100
AcDbBlockTableRecord
  2
block 99
340
0
102
{BLKREFS
331
30A
102
}
  0
BLOCK_RECORD
  5
311
330
1
100
AcDbSymbolTableRecord
100
AcDbBlockTableRecord
  2
block 100
340
0
102
{BLKREFS
331
312
102
}
  0
BLOCK_RECORD
  5
319
330
1
100
AcDbSymbolTableRecord
100
AcDbBlockTableRecord
  2
block 101
340
0
102
{BLKREFS
331
31A
102
}
  0
BLOCK_RECORD
  5
321
330
1
100
AcDbSymbolTableRecord
100
AcDbBlockTableRecord
  2
block 102
340
0
102
{BLKREFS
331
322
102
}
  0
BLOCK_RECORD
  5
326
330
1
100
AcDbSymbolTableRecord
100
AcDbBlockTableRecord
  2
block 103
340
0
102
{BLKREFS
331
327
102
}
  0
BLOCK_RECORD
  5
32B
330
1
100
AcDbSymbolTableRecord
100
AcDbBlockTableRecord
  2
block 104
340
0
102
{BLKREFS
331
32C
102
}
  0
BLOCK_RECORD
  5
330
330
1
100
AcDbSymbolTableRecord
100
AcDbBlockTableRecord
  2
block 105
340
0
102
{BLKREFS
331
331
102
}
  0
BLOCK_RECORD
  5
335
330
1
100
AcDbSymbolTableRecord
100
AcDbBlockTableRecord
  2
block 106
340
0
102
{BLKREFS
331
336
102
}
  0
BLOCK_RECORD
  5
33D
330
1
100
AcDbSymbolTableRecord
100
AcDbBlockTableRecord
  2
block 107
340
0
102
{BLKREFS
331
33E
102
}
  0
BLOCK_RECORD
  5
342
330
1
100
AcDbSymbolTableRecord
100
AcDbBlockTableRecord
  2
block 108
340
0
102
{BLKREFS
331
343
102
}
  0
BLOCK_RECORD
  5
34A
330
1
100
AcDbSymbolTableRecord
100
AcDbBlockTableRecord
  2
block 109
340
0
102
{BLKREFS
331
34B
102
}
  0
BLOCK_RECORD
  5
352
330
1
100
AcDbSymbolTableRecord
100
AcDbBlockTableRecord
  2
block 110
340
0
102
{BLKREFS
331
353
102
}
  0
BLOCK_RECORD
  5
35A
330
1
100
AcDbSymbolTableRecord
100
AcDbBlockTableRecord
  2
block 111
340
0
102
{BLKREFS
331
35B
102
}
  0
BLOCK_RECORD
  5
35F
330
1
100
AcDbSymbolTableRecord
100
AcDbBlockTableRecord
  2
block 112
340
0
102
{BLKREFS
331
360
102
}
  0
BLOCK_RECORD
  5
364
330
1
100
AcDbSymbolTableRecord
100
AcDbBlockTableRecord
  2
block 113
340
0
102
{BLKREFS
331
365
102
}
  0
BLOCK_RECORD
  5
36C
330
1
100
AcDbSymbolTableRecord
100
AcDbBlockTableRecord
  2
block 114
340
0
102
{BLKREFS
331
36D
102
}
  0
BLOCK_RECORD
  5
374
330
1
100
AcDbSymbolTableRecord
100
AcDbBlockTableRecord
  2
block 115
340
0
102
{BLKREFS
331
375
102
}
  0
BLOCK_RECORD
  5
37C
330
1
100
AcDbSymbolTableRecord
100
AcDbBlockTableRecord
  2
block 116
340
0
102
{BLKREFS
331
37D
102
}
  0
BLOCK_RECORD
  5
384
330
1
100
AcDbSymbolTableRecord
100
AcDbBlockTableRecord
  2
block 117
340
0
102
{BLKREFS
331
385
102
}
  0
BLOCK_RECORD
  5
38C
330
1
100
AcDbSymbolTableRecord
100
AcDbBlockTableRecord
  2
block 118
340
0
102
{BLKREFS
331
38D
102
}
  0
BLOCK_RECORD
  5
394
330
1
100
AcDbSymbolTableRecord
100
AcDbBlockTableRecord
  2
block 119
340
0
102
{BLKREFS
331
395
102
}
  0
BLOCK_RECORD
  5
399
330
1
100
AcDbSymbolTableRecord
100
AcDbBlockTableRecord
  2
block 120
340
0
102
{BLKREFS
331
39A
102
}
  0
BLOCK_RECORD
  5
3A1
330
1
100
AcDbSymbolTableRecord
100
AcDbBlockTableRecord
  2
block 121
340
0
102
{BLKREFS
331
3A2
102
}
  0
BLOCK_RECORD
  5
3A6
330
1
100
AcDbSymbolTableRecord
100
AcDbBlockTableRecord
  2
block 122
340
0
102
{BLKREFS
331
3A7
102
}
  0
BLOCK_RECORD
  5
3AE
330
1
100
AcDbSymbolTableRecord
100
AcDbBlockTableRecord
  2
block 123
340
0
102
{BLKREFS
331
3AF
102
}
  0
BLOCK_RECORD
  5
3B6
330
1
100
AcDbSymbolTableRecord
100
AcDbBlockTableRecord
  2
block 124
340
0
102
{BLKREFS
331
3B7
102
}
  0
BLOCK_RECORD
  5
3BE
330
1
100
AcDbSymbolTableRecord
100
AcDbBlockTableRecord
  2
block 125
340
0
102
{BLKREFS
331
3BF
102
}
  0
BLOCK_RECORD
  5
3C3
330
1
100
AcDbSymbolTableRecord
100
AcDbBlockTableRecord
  2
block 126
340
0
102
{BLKREFS
331
3C4
102
}
  0
BLOCK_RECORD
  5
3C8
330
1
100
AcDbSymbolTableRecord
100
AcDbBlockTableRecord
  2
block 127
340
0
102
{BLKREFS
331
3C9
102
}
  0
BLOCK_RECORD
  5
3CD
330
1
100
AcDbSymbolTableRecord
100
AcDbBlockTableRecord
  2
block 128
340
0
102
{BLKREFS
331
3CE
102
}
  0
BLOCK_RECORD
  5
3D5
330
1
100
AcDbSymbolTableRecord
100
AcDbBlockTableRecord
  2
block 129
340
0
102
{BLKREFS
331
3D6
102
}
  0
BLOCK_RECORD
  5
3DD
330
1
100
AcDbSymbolTableRecord
100
AcDbBlockTableRecord
  2
block 130
340
0
102
{BLKREFS
331
3DE
102
}
  0
BLOCK_RECORD
  5
3E2
330
1
100
AcDbSymbolTableRecord
100
AcDbBlockTableRecord
  2
block 131
340
0
102
{BLKREFS
331
3E3
102
}
  0
BLOCK_RECORD
  5
3EA
330
1
100
AcDbSymbolTableRecord
100
AcDbBlockTableRecord
  2
block 132
340
0
102
{BLKREFS
331
3EB
102
}
  0
BLOCK_RECORD
  5
3F2
330
1
100
AcDbSymbolTableRecord
100
AcDbBlockTableRecord
  2
block 133
340
0
102
{BLKREFS
331
3F3
102
}
  0
BLOCK_RECORD
  5
3F7
330
1
100
AcDbSymbolTableRecord
100
AcDbBlockTableRecord
  2
block 134
340
0
102
{BLKREFS
331
3F8
102
}
  0
BLOCK_RECORD
  5
3FF
330
1
100
AcDbSymbolTableRecord
100
AcDbBlockTableRecord
  2
block 135
340
0
102
{BLKREFS
331
400
102
}
  0
BLOCK_RECORD
  5
407
330
1
100
AcDbSymbolTableRecord
100
AcDbBlockTableRecord
  2
block 136
340
0
102
{BLKREFS
331
408
102
}
  0
BLOCK_RECORD
  5
40F
330
1
100
AcDbSymbolTableRecord
100
AcDbBlockTableRecord
  2
block 137
340
0
102
{BLKREFS
331
410
102
}
  0
BLOCK_RECORD
  5
417
330
1
100
AcDbSymbolTableRecord
100
AcDbBlockTableRecord
  2
block 138
340
0
102
{BLKREFS
331
418
102
}
  0
BLOCK_RECORD
  5
41F
330
1
100
AcDbSymbolTableRecord
100
AcDbBlockTableRecord
  2
block 139
340
0
102
{BLKREFS
331
420
102
}
  0
BLOCK_RECORD
  5
424
330
1
100
AcDbSymbolTableRecord
100
AcDbBlockTableRecord
  2
block 140
340
0
102
{BLKREFS
331
425
102
}
  0
BLOCK_RECORD
  5
42C
330
1
100
AcDbSymbolTableRecord
100
AcDbBlockTableRecord
  2
block 141
340
0
102
{BLKREFS
331
42D
102
}
  0
BLOCK_RECORD
  5
434
330
1
100
AcDbSymbolTableRecord
100
AcDbBlockTableRecord
  2
block 142
340
0
102
{BLKREFS
331
435
102
}
  0
BLOCK_RECORD
  5
43C
330
1
100
AcDbSymbolTableRecord
100
AcDbBlockTableRecord
  2
block 143
340
0
102
{BLKREFS
331
43D
102
}
  0
BLOCK_RECORD
  5
444
330
1
100
AcDbSymbolTableRecord
100
AcDbBlockTableRecord
  2
block 144
340
0
102
{BLKREFS
331
445
102
}
  0
BLOCK_RECORD
  5
44C
330
1
100
AcDbSymbolTableRecord
100
AcDbBlockTableRecord
  2
block 145
340
0
102
{BLKREFS
331
44D
102
}
  0
BLOCK_RECORD
  5
451
330
1
100
AcDbSymbolTableRecord
100
AcDbBlockTableRecord
  2
block 146
340
0
102
{BLKREFS
331
452
102
}
  0
BLOCK_RECORD
  5
456
330
1
100
AcDbSymbolTableRecord
100
AcDbBlockTableRecord
  2
block 147
340
0
102
{BLKREFS
331
457
102
}
  0
BLOCK_RECORD
  5
45B
330
1
100
AcDbSymbolTableRecord
100
AcDbBlockTableRecord
  2
block 148
340
0
102
{BLKREFS
331
45C
102
}
  0
BLOCK_RECORD
  5
464
330
1
100
AcDbSymbolTableRecord
100
AcDbBlockTableRecord
  2
block 149
340
0
102
{BLKREFS
331
465
102
}
  0
BLOCK_RECORD
  5
4AA
330
1
100
AcDbSymbolTableRecord
100
AcDbBlockTableRecord
  2
block 150
340
0
102
{BLKREFS
331
4AB
102
}
  0
BLOCK_RECORD
  5
4AE
330
1
100
AcDbSymbolTableRecord
100
AcDbBlockTableRecord
  2
block 151
340
0
102
{BLKREFS
331
4AF
102
}
  0
BLOCK_RECORD
  5
4B6
330
1
100
AcDbSymbolTableRecord
100
AcDbBlockTableRecord
  2
block 152
340
0
102
{BLKREFS
331
4B7
102
}
  0
BLOCK_RECORD
  5
4BE
330
1
100
AcDbSymbolTableRecord
100
AcDbBlockTableRecord
  2
block 153
340
0
102
{BLKREFS
331
4BF
102
}
  0
BLOCK_RECORD
  5
4C6
330
1
100
AcDbSymbolTableRecord
100
AcDbBlockTableRecord
  2
block 154
340
0
102
{BLKREFS
331
4C7
102
}
  0
BLOCK_RECORD
  5
4CE
330
1
100
AcDbSymbolTableRecord
100
AcDbBlockTableRecord
  2
block 155
340
0
102
{BLKREFS
331
4CF
102
}
  0
BLOCK_RECORD
  5
4D9
330
1
100
AcDbSymbolTableRecord
100
AcDbBlockTableRecord
  2
block 156
340
0
102
{BLKREFS
331
4DA
102
}
  0
BLOCK_RECORD
  5
4E4
330
1
100
AcDbSymbolTableRecord
100
AcDbBlockTableRecord
  2
block 157
340
0
102
{BLKREFS
331
4E5
102
}
  0
BLOCK_RECORD
  5
4E9
330
1
100
AcDbSymbolTableRecord
100
AcDbBlockTableRecord
  2
block 158
340
0
102
{BLKREFS
331
4EA
102
}
  0
BLOCK_RECORD
  5
4F1
330
1
100
AcDbSymbolTableRecord
100
AcDbBlockTableRecord
  2
block 159
340
0
102
{BLKREFS
331
4F2
102
}
  0
BLOCK_RECORD
  5
4F9
330
1
100
AcDbSymbolTableRecord
100
AcDbBlockTableRecord
  2
block 160
340
0
102
{BLKREFS
331
4FA
102
}
  0
BLOCK_RECORD
  5
501
330
1
100
AcDbSymbolTableRecord
100
AcDbBlockTableRecord
  2
block 161
340
0
102
{BLKREFS
331
502
102
}
  0
BLOCK_RECORD
  5
509
330
1
100
AcDbSymbolTableRecord
100
AcDbBlockTableRecord
  2
block 162
340
0
102
{BLKREFS
331
50A
102
}
  0
BLOCK_RECORD
  5
511
330
1
100
AcDbSymbolTableRecord
100
AcDbBlockTableRecord
  2
block 163
340
0
102
{BLKREFS
331
512
102
}
  0
BLOCK_RECORD
  5
515
330
1
100
AcDbSymbolTableRecord
100
AcDbBlockTableRecord
  2
block 164
340
0
102
{BLKREFS
331
516
102
}
  0
BLOCK_RECORD
  5
51D
330
1
100
AcDbSymbolTableRecord
100
AcDbBlockTableRecord
  2
block 165
340
0
102
{BLKREFS
331
51E
102
}
  0
BLOCK_RECORD
  5
525
330
1
100
AcDbSymbolTableRecord
100
AcDbBlockTableRecord
  2
block 166
340
0
102
{BLKREFS
331
526
102
}
  0
BLOCK_RECORD
  5
52A
330
1
100
AcDbSymbolTableRecord
100
AcDbBlockTableRecord
  2
block 167
340
0
102
{BLKREFS
331
52B
102
}
  0
BLOCK_RECORD
  5
535
330
1
100
AcDbSymbolTableRecord
100
AcDbBlockTableRecord
  2
block 168
340
0
102
{BLKREFS
331
536
102
}
  0
BLOCK_RECORD
  5
540
330
1
100
AcDbSymbolTableRecord
100
AcDbBlockTableRecord
  2
block 169
340
0
102
{BLKREFS
331
541
102
}
  0
BLOCK_RECORD
  5
545
330
1
100
AcDbSymbolTableRecord
100
AcDbBlockTableRecord
  2
block 170
340
0
102
{BLKREFS
331
546
102
}
  0
BLOCK_RECORD
  5
54D
330
1
100
AcDbSymbolTableRecord
100
AcDbBlockTableRecord
  2
block 171
340
0
102
{BLKREFS
331
54E
102
}
  0
BLOCK_RECORD
  5
555
330
1
100
AcDbSymbolTableRecord
100
AcDbBlockTableRecord
  2
block 172
340
0
102
{BLKREFS
331
556
102
}
  0
BLOCK_RECORD
  5
55D
330
1
100
AcDbSymbolTableRecord
100
AcDbBlockTableRecord
  2
block 173
340
0
102
{BLKREFS
331
55E
102
}
  0
BLOCK_RECORD
  5
565
330
1
100
AcDbSymbolTableRecord
100
AcDbBlockTableRecord
  2
block 174
340
0
102
{BLKREFS
331
566
102
}
  0
BLOCK_RECORD
  5
56D
330
1
100
AcDbSymbolTableRecord
100
AcDbBlockTableRecord
  2
block 175
340
0
102
{BLKREFS
331
56E
102
}
  0
BLOCK_RECORD
  5
571
330
1
100
AcDbSymbolTableRecord
100
AcDbBlockTableRecord
  2
block 176
340
0
102
{BLKREFS
331
572
102
}
  0
BLOCK_RECORD
  5
579
330
1
100
AcDbSymbolTableRecord
100
AcDbBlockTableRecord
  2
block 177
340
0
102
{BLKREFS
331
57A
102
}
  0
BLOCK_RECORD
  5
581
330
1
100
AcDbSymbolTableRecord
100
AcDbBlockTableRecord
  2
block 178
340
0
102
{BLKREFS
331
582
102
}
  0
BLOCK_RECORD
  5
589
330
1
100
AcDbSymbolTableRecord
100
AcDbBlockTableRecord
  2
block 179
340
0
102
{BLKREFS
331
58A
102
}
  0
BLOCK_RECORD
  5
591
330
1
100
AcDbSymbolTableRecord
100
AcDbBlockTableRecord
  2
block 180
340
0
102
{BLKREFS
331
592
102
}
  0
BLOCK_RECORD
  5
599
330
1
100
AcDbSymbolTableRecord
100
AcDbBlockTableRecord
  2
block 181
340
0
102
{BLKREFS
331
59A
102
}
  0
BLOCK_RECORD
  5
5A4
330
1
100
AcDbSymbolTableRecord
100
AcDbBlockTableRecord
  2
block 182
340
0
102
{BLKREFS
331
5A5
102
}
  0
BLOCK_RECORD
  5
5AF
330
1
100
AcDbSymbolTableRecord
100
AcDbBlockTableRecord
  2
block 183
340
0
102
{BLKREFS
331
5B0
102
}
  0
BLOCK_RECORD
  5
5B4
330
1
100
AcDbSymbolTableRecord
100
AcDbBlockTableRecord
  2
block 184
340
0
102
{BLKREFS
331
5B5
102
}
  0
BLOCK_RECORD
  5
5BC
330
1
100
AcDbSymbolTableRecord
100
AcDbBlockTableRecord
  2
block 185
340
0
102
{BLKREFS
331
5BD
102
}
  0
BLOCK_RECORD
  5
5C4
330
1
100
AcDbSymbolTableRecord
100
AcDbBlockTableRecord
  2
block 186
340
0
102
{BLKREFS
331
5C5
102
}
  0
BLOCK_RECORD
  5
5CC
330
1
100
AcDbSymbolTableRecord
100
AcDbBlockTableRecord
  2
block 187
340
0
102
{BLKREFS
331
5CD
102
}
  0
BLOCK_RECORD
  5
5D0
330
1
100
AcDbSymbolTableRecord
100
AcDbBlockTableRecord
  2
block 188
340
0
102
{BLKREFS
331
5D1
102
}
  0
BLOCK_RECORD
  5
5D8
330
1
100
AcDbSymbolTableRecord
100
AcDbBlockTableRecord
  2
block 189
340
0
102
{BLKREFS
331
5D9
102
}
  0
BLOCK_RECORD
  5
5E0
330
1
100
AcDbSymbolTableRecord
100
AcDbBlockTableRecord
  2
block 190
340
0
102
{BLKREFS
331
5E1
102
}
  0
BLOCK_RECORD
  5
5E8
330
1
100
AcDbSymbolTableRecord
100
AcDbBlockTableRecord
  2
block 191
340
0
102
{BLKREFS
331
5E9
102
}
  0
BLOCK_RECORD
  5
5F0
330
1
100
AcDbSymbolTableRecord
100
AcDbBlockTableRecord
  2
block 192
340
0
102
{BLKREFS
331
5F1
102
}
  0
BLOCK_RECORD
  5
5FB
330
1
100
AcDbSymbolTableRecord
100
AcDbBlockTableRecord
  2
block 193
340
0
102
{BLKREFS
331
5FC
102
}
  0
BLOCK_RECORD
  5
606
330
1
100
AcDbSymbolTableRecord
100
AcDbBlockTableRecord
  2
block 194
340
0
102
{BLKREFS
331
607
102
}
  0
BLOCK_RECORD
  5
60B
330
1
100
AcDbSymbolTableRecord
100
AcDbBlockTableRecord
  2
block 195
340
0
102
{BLKREFS
331
60C
102
}
  0
BLOCK_RECORD
  5
613
330
1
100
AcDbSymbolTableRecord
100
AcDbBlockTableRecord
  2
block 196
340
0
102
{BLKREFS
331
614
102
}
  0
BLOCK_RECORD
  5
61B
330
1
100
AcDbSymbolTableRecord
100
AcDbBlockTableRecord
  2
block 197
340
0
102
{BLKREFS
331
61C
102
}
  0
BLOCK_RECORD
  5
623
330
1
100
AcDbSymbolTableRecord
100
AcDbBlockTableRecord
  2
block 198
340
0
102
{BLKREFS
331
624
102
}
  0
BLOCK_RECORD
  5
627
330
1
100
AcDbSymbolTableRecord
100
AcDbBlockTableRecord
  2
block 199
340
0
102
{BLKREFS
331
628
102
}
  0
BLOCK_RECORD
  5
62F
330
1
100
AcDbSymbolTableRecord
100
AcDbBlockTableRecord
  2
block 200
340
0
102
{BLKREFS
331
630
102
}
  0
BLOCK_RECORD
  5
637
330
1
100
AcDbSymbolTableRecord
100
AcDbBlockTableRecord
  2
block 201
340
0
102
{BLKREFS
331
638
102
}
  0
BLOCK_RECORD
  5
63F
330
1
100
AcDbSymbolTableRecord
100
AcDbBlockTableRecord
  2
block 202
340
0
102
{BLKREFS
331
640
102
}
  0
BLOCK_RECORD
  5
647
330
1
100
AcDbSymbolTableRecord
100
AcDbBlockTableRecord
  2
block 203
340
0
102
{BLKREFS
331
648
102
}
  0
BLOCK_RECORD
  5
652
330
1
100
AcDbSymbolTableRecord
100
AcDbBlockTableRecord
  2
block 204
340
0
102
{BLKREFS
331
653
102
}
  0
BLOCK_RECORD
  5
65D
330
1
100
AcDbSymbolTableRecord
100
AcDbBlockTableRecord
  2
block 205
340
0
102
{BLKREFS
331
65E
102
}
  0
BLOCK_RECORD
  5
662
330
1
100
AcDbSymbolTableRecord
100
AcDbBlockTableRecord
  2
block 206
340
0
102
{BLKREFS
331
663
102
}
  0
BLOCK_RECORD
  5
66A
330
1
100
AcDbSymbolTableRecord
100
AcDbBlockTableRecord
  2
block 207
340
0
102
{BLKREFS
331
66B
102
}
  0
BLOCK_RECORD
  5
672
330
1
100
AcDbSymbolTableRecord
100
AcDbBlockTableRecord
  2
block 208
340
0
102
{BLKREFS
331
673
102
}
  0
BLOCK_RECORD
  5
67A
330
1
100
AcDbSymbolTableRecord
100
AcDbBlockTableRecord
  2
block 209
340
0
102
{BLKREFS
331
67B
102
}
  0
BLOCK_RECORD
  5
67E
330
1
100
AcDbSymbolTableRecord
100
AcDbBlockTableRecord
  2
block 210
340
0
102
{BLKREFS
331
67F
102
}
  0
BLOCK_RECORD
  5
686
330
1
100
AcDbSymbolTableRecord
100
AcDbBlockTableRecord
  2
block 211
340
0
102
{BLKREFS
331
687
102
}
  0
BLOCK_RECORD
  5
68E
330
1
100
AcDbSymbolTableRecord
100
AcDbBlockTableRecord
  2
block 212
340
0
102
{BLKREFS
331
68F
102
}
  0
BLOCK_RECORD
  5
696
330
1
100
AcDbSymbolTableRecord
100
AcDbBlockTableRecord
  2
block 213
340
0
102
{BLKREFS
331
697
102
}
  0
BLOCK_RECORD
  5
69E
330
1
100
AcDbSymbolTableRecord
100
AcDbBlockTableRecord
  2
block 214
340
0
102
{BLKREFS
331
69F
102
}
  0
BLOCK_RECORD
  5
6A9
330
1
100
AcDbSymbolTableRecord
100
AcDbBlockTableRecord
  2
block 215
340
0
102
{BLKREFS
331
6AA
102
}
  0
BLOCK_RECORD
  5
6B4
330
1
100
AcDbSymbolTableRecord
100
AcDbBlockTableRecord
  2
block 216
340
0
102
{BLKREFS
331
6B5
102
}
  0
BLOCK_RECORD
  5
6B9
330
1
100
AcDbSymbolTableRecord
100
AcDbBlockTableRecord
  2
block 217
340
0
102
{BLKREFS
331
6BA
102
}
  0
BLOCK_RECORD
  5
6C1
330
1
100
AcDbSymbolTableRecord
100
AcDbBlockTableRecord
  2
block 218
340
0
102
{BLKREFS
331
6C2
102
}
  0
BLOCK_RECORD
  5
6C9
330
1
100
AcDbSymbolTableRecord
100
AcDbBlockTableRecord
  2
block 219
340
0
102
{BLKREFS
331
6CA
102
}
  0
BLOCK_RECORD
  5
6D1
330
1
100
AcDbSymbolTableRecord
100
AcDbBlockTableRecord
  2
block 220
340
0
102
{BLKREFS
331
6D2
102
}
  0
BLOCK_RECORD
  5
6DA
330
1
100
AcDbSymbolTableRecord
100
AcDbBlockTableRecord
  2
block 221
340
0
102
{BLKREFS
331
6DB
102
}
  0
BLOCK_RECORD
  5
6E3
330
1
100
AcDbSymbolTableRecord
100
AcDbBlockTableRecord
  2
block 222
340
0
102
{BLKREFS
331
6E4
102
}
  0
BLOCK_RECORD
  5
6EC
330
1
100
AcDbSymbolTableRecord
100
AcDbBlockTableRecord
  2
block 223
340
0
102
{BLKREFS
331
6ED
102
}
  0
BLOCK_RECORD
  5
6F5
330
1
100
AcDbSymbolTableRecord
100
AcDbBlockTableRecord
  2
block 224
340
0
102
{BLKREFS
331
6F6
102
}
  0
BLOCK_RECORD
  5
6F9
330
1
100
AcDbSymbolTableRecord
100
AcDbBlockTableRecord
  2
block 225
340
0
102
{BLKREFS
331
6FA
102
}
  0
BLOCK_RECORD
  5
701
330
1
100
AcDbSymbolTableRecord
100
AcDbBlockTableRecord
  2
block 226
340
0
102
{BLKREFS
331
702
102
}
  0
BLOCK_RECORD
  5
709
330
1
100
AcDbSymbolTableRecord
100
AcDbBlockTableRecord
  2
block 227
340
0
102
{BLKREFS
331
70A
102
}
  0
BLOCK_RECORD
  5
711
330
1
100
AcDbSymbolTableRecord
100
AcDbBlockTableRecord
  2
block 228
340
0
102
{BLKREFS
331
712
102
}
  0
BLOCK_RECORD
  5
719
330
1
100
AcDbSymbolTableRecord
100
AcDbBlockTableRecord
  2
block 229
340
0
102
{BLKREFS
331
71A
102
}
  0
BLOCK_RECORD
  5
721
330
1
100
AcDbSymbolTableRecord
100
AcDbBlockTableRecord
  2
block 230
340
0
102
{BLKREFS
331
722
102
}
  0
BLOCK_RECORD
  5
72C
330
1
100
AcDbSymbolTableRecord
100
AcDbBlockTableRecord
  2
block 231
340
0
102
{BLKREFS
331
72D
102
}
  0
BLOCK_RECORD
  5
737
330
1
100
AcDbSymbolTableRecord
100
AcDbBlockTableRecord
  2
block 232
340
0
102
{BLKREFS
331
738
102
}
  0
BLOCK_RECORD
  5
73C
330
1
100
AcDbSymbolTableRecord
100
AcDbBlockTableRecord
  2
block 233
340
0
102
{BLKREFS
331
73D
102
}
  0
BLOCK_RECORD
  5
744
330
1
100
AcDbSymbolTableRecord
100
AcDbBlockTableRecord
  2
block 234
340
0
102
{BLKREFS
331
745
102
}
  0
BLOCK_RECORD
  5
74C
330
1
100
AcDbSymbolTableRecord
100
AcDbBlockTableRecord
  2
block 235
340
0
102
{BLKREFS
331
74D
102
}
  0
ENDTAB
  0
ENDSEC
  0
SECTION
  2
BLOCKS
  0
BLOCK
  5
20
330
1F
100
AcDbEntity
  8
0
100
AcDbBlockBegin
  2
*Model_Space
 70
     0
 71
     0
 10
0.0
 20
0.0
 30
0.0
  3
*Model_Space
  1

  0
ENDBLK
  5
21
330
1F
100
AcDbEntity
  8
0
100
AcDbBlockEnd
  0
BLOCK
  5
1C
330
1B
100
AcDbEntity
 67
     1
  8
0
100
AcDbBlockBegin
  2
*Paper_Space
 70
     0
 71
     0
 10
0.0
 20
0.0
 30
0.0
  3
*Paper_Space
  1

  0
ENDBLK
  5
1D
330
1B
100
AcDbEntity
 67
     1
  8
0
100
AcDbBlockEnd
  0
BLOCK
  5
24
330
23
100
AcDbEntity
  8
0
100
AcDbBlockBegin
  2
*Paper_Space0
 70
     0
 71
     0
 10
0.0
 20
0.0
 30
0.0
  3
*Paper_Space0
  1

  0
ENDBLK
  5
25
330
23
100
AcDbEntity
  8
0
100
AcDbBlockEnd
  0
BLOCK
  5
3E
330
3C
100
AcDbEntity
  8
0
100
AcDbBlockBegin
  2
block 2
 70
     0
 71
     0
 10
0.0
 20
0.0
 30
0.0
  3
block 2
  1

  0
POLYLINE
  5
40
330
3C
100
AcDbEntity
  8
cuerpo
 62
     7
420
 16777215
370
    25
100
AcDb2dPolyline
 66
     1
 10
0.0
 20
0.0
 30
0.0
  0
VERTEX
  5
41
330
40
100
AcDbEntity
  8
cuerpo
 62
     7
420
 16777215
370
    25
100
AcDbVertex
100
AcDb2dVertex
 10
22.07496608606112
 20
93.41617564938902
 30
0.0
  0
VERTEX
  5
42
330
40
100
AcDbEntity
  8
cuerpo
 62
     7
420
 16777215
370
    25
100
AcDbVertex
100
AcDb2dVertex
 10
57.60268553247433
 20
93.41617564938902
 30
0.0
  0
SEQEND
  5
43
330
40
100
AcDbEntity
  8
cuerpo
370
    25
  0
ENDBLK
  5
3F
330
3C
100
AcDbEntity
  8
0
100
AcDbBlockEnd
  0
BLOCK
  5
46
330
44
100
AcDbEntity
  8
0
100
AcDbBlockBegin
  2
block 3
 70
     0
 71
     0
 10
0.0
 20
0.0
 30
0.0
  3
block 3
  1

  0
POLYLINE
  5
48
330
44
100
AcDbEntity
  8
cuerpo
 62
     7
420
 16777215
370
    25
100
AcDb2dPolyline
 66
     1
 10
0.0
 20
0.0
 30
0.0
  0
VERTEX
  5
49
330
48
100
AcDbEntity
  8
cuerpo
 62
     7
420
 16777215
370
    25
100
AcDbVertex
100
AcDb2dVertex
 10
27.01626654055496
 20
93.41583113984049
 30
0.0
  0
VERTEX
  5
4A
330
48
100
AcDbEntity
  8
cuerpo
 62
     7
420
 16777215
370
    25
100
AcDbVertex
100
AcDb2dVertex
 10
31.9575669950488
 20
93.41583113984049
 30
0.0
  0
SEQEND
  5
4B
330
48
100
AcDbEntity
  8
cuerpo
370
    25
  0
ENDBLK
  5
47
330
44
100
AcDbEntity
  8
0
100
AcDbBlockEnd
  0
BLOCK
  5
4E
330
4C
100
AcDbEntity
  8
0
100
AcDbBlockBegin
  2
block 4
 70
     0
 71
     0
 10
0.0
 20
0.0
 30
0.0
  3
block 4
  1

  0
POLYLINE
  5
50
330
4C
100
AcDbEntity
  8
cuerpo
 62
     7
420
 16777215
370
    25
100
AcDb2dPolyline
 66
     1
 10
0.0
 20
0.0
 30
0.0
  0
VERTEX
  5
51
330
50
100
AcDbEntity
  8
cuerpo
 62
     7
420
 16777215
370
    25
100
AcDbVertex
100
AcDb2dVertex
 10
56.50059948674291
 20
89.80606009039572
 30
0.0
  0
VERTEX
  5
52
330
50
100
AcDbEntity
  8
cuerpo
 62
     7
420
 16777215
370
    25
100
AcDbVertex
100
AcDb2dVertex
 10
56.50059948674291
 20
89.80606009039572
 30
0.0
  0
SEQEND
  5
53
330
50
100
AcDbEntity
  8
cuerpo
370
    25
  0
ENDBLK
  5
4F
330
4C
100
AcDbEntity
  8
0
100
AcDbBlockEnd
  0
BLOCK
  5
56
330
54
100
AcDbEntity
  8
0
100
AcDbBlockBegin
  2
block 5
 70
     0
 71
     0
 10
0.0
 20
0.0
 30
0.0
  3
block 5
  1

  0
POLYLINE
  5
58
330
54
100
AcDbEntity
  8
cuerpo
 62
     7
420
 16777215
370
    25
100
AcDb2dPolyline
 66
     1
 10
0.0
 20
0.0
 30
0.0
  0
VERTEX
  5
59
330
58
100
AcDbEntity
  8
cuerpo
 62
     7
420
 16777215
370
    25
100
AcDbVertex
100
AcDb2dVertex
 10
56.50059948674291
 20
89.80606009039572
 30
0.0
  0
VERTEX
  5
5A
330
58
100
AcDbEntity
  8
cuerpo
 62
     7
420
 16777215
370
    25
100
AcDbVertex
100
AcDb2dVertex
 10
56.50059948674291
 20
89.80606009039572
 30
0.0
  0
SEQEND
  5
5B
330
58
100
AcDbEntity
  8
cuerpo
370
    25
  0
ENDBLK
  5
57
330
54
100
AcDbEntity
  8
0
100
AcDbBlockEnd
  0
BLOCK
  5
5E
330
5C
100
AcDbEntity
  8
0
100
AcDbBlockBegin
  2
block 6
 70
     0
 71
     0
 10
0.0
 20
0.0
 30
0.0
  3
block 6
  1

  0
POLYLINE
  5
60
330
5C
100
AcDbEntity
  8
cuerpo
 62
     7
420
 16777215
370
    25
100
AcDb2dPolyline
 66
     1
 10
0.0
 20
0.0
 30
0.0
  0
VERTEX
  5
61
330
60
100
AcDbEntity
  8
cuerpo
 62
     7
420
 16777215
370
    25
100
AcDbVertex
100
AcDb2dVertex
 10
56.50059948674291
 20
89.80606009039572
 30
0.0
  0
VERTEX
  5
62
330
60
100
AcDbEntity
  8
cuerpo
 62
     7
420
 16777215
370
    25
100
AcDbVertex
100
AcDb2dVertex
 10
56.50059948674291
 20
89.80606009039572
 30
0.0
  0
SEQEND
  5
63
330
60
100
AcDbEntity
  8
cuerpo
370
    25
  0
ENDBLK
  5
5F
330
5C
100
AcDbEntity
  8
0
100
AcDbBlockEnd
  0
BLOCK
  5
66
330
64
100
AcDbEntity
  8
0
100
AcDbBlockBegin
  2
block 7
 70
     0
 71
     0
 10
0.0
 20
0.0
 30
0.0
  3
block 7
  1

  0
POLYLINE
  5
68
330
64
100
AcDbEntity
  8
cuerpo
 62
     7
420
 16777215
370
    25
100
AcDb2dPolyline
 66
     1
 10
0.0
 20
0.0
 30
0.0
  0
VERTEX
  5
69
330
68
100
AcDbEntity
  8
cuerpo
 62
     7
420
 16777215
370
    25
100
AcDbVertex
100
AcDb2dVertex
 10
56.50059948674291
 20
89.80606009039572
 30
0.0
  0
VERTEX
  5
6A
330
68
100
AcDbEntity
  8
cuerpo
 62
     7
420
 16777215
370
    25
100
AcDbVertex
100
AcDb2dVertex
 10
56.50059948674291
 20
89.80606009039572
 30
0.0
  0
SEQEND
  5
6B
330
68
100
AcDbEntity
  8
cuerpo
370
    25
  0
ENDBLK
  5
67
330
64
100
AcDbEntity
  8
0
100
AcDbBlockEnd
  0
BLOCK
  5
6E
330
6C
100
AcDbEntity
  8
0
100
AcDbBlockBegin
  2
block 8
 70
     0
 71
     0
 10
0.0
 20
0.0
 30
0.0
  3
block 8
  1

  0
POLYLINE
  5
70
330
6C
100
AcDbEntity
  8
cuerpo
 62
     7
420
 16777215
370
    25
100
AcDb2dPolyline
 66
     1
 10
0.0
 20
0.0
 30
0.0
  0
VERTEX
  5
71
330
70
100
AcDbEntity
  8
cuerpo
 62
     7
420
 16777215
370
    25
100
AcDbVertex
100
AcDb2dVertex
 10
56.50059948674291
 20
89.80606009039572
 30
0.0
  0
VERTEX
  5
72
330
70
100
AcDbEntity
  8
cuerpo
 62
     7
420
 16777215
370
    25
100
AcDbVertex
100
AcDb2dVertex
 10
56.50059948674291
 20
89.80606009039572
 30
0.0
  0
SEQEND
  5
73
330
70
100
AcDbEntity
  8
cuerpo
370
    25
  0
ENDBLK
  5
6F
330
6C
100
AcDbEntity
  8
0
100
AcDbBlockEnd
  0
BLOCK
  5
76
330
74
100
AcDbEntity
  8
0
100
AcDbBlockBegin
  2
block 9
 70
     0
 71
     0
 10
0.0
 20
0.0
 30
0.0
  3
block 9
  1

  0
POLYLINE
  5
78
330
74
100
AcDbEntity
  8
cuerpo
 62
     7
420
 16777215
370
    25
100
AcDb2dPolyline
 66
     1
 10
0.0
 20
0.0
 30
0.0
  0
VERTEX
  5
79
330
78
100
AcDbEntity
  8
cuerpo
 62
     7
420
 16777215
370
    25
100
AcDbVertex
100
AcDb2dVertex
 10
56.50059948674291
 20
89.80606009039572
 30
0.0
  0
VERTEX
  5
7A
330
78
100
AcDbEntity
  8
cuerpo
 62
     7
420
 16777215
370
    25
100
AcDbVertex
100
AcDb2dVertex
 10
56.50059948674291
 20
89.80606009039572
 30
0.0
  0
SEQEND
  5
7B
330
78
100
AcDbEntity
  8
cuerpo
370
    25
  0
ENDBLK
  5
77
330
74
100
AcDbEntity
  8
0
100
AcDbBlockEnd
  0
BLOCK
  5
7E
330
7C
100
AcDbEntity
  8
0
100
AcDbBlockBegin
  2
block 10
 70
     0
 71
     0
 10
0.0
 20
0.0
 30
0.0
  3
block 10
  1

  0
POLYLINE
  5
80
330
7C
100
AcDbEntity
  8
cuerpo
 62
     7
420
 16777215
370
    25
100
AcDb2dPolyline
 66
     1
 10
0.0
 20
0.0
 30
0.0
  0
VERTEX
  5
81
330
80
100
AcDbEntity
  8
cuerpo
 62
     7
420
 16777215
370
    25
100
AcDbVertex
100
AcDb2dVertex
 10
56.50059948674291
 20
89.80606009039572
 30
0.0
  0
VERTEX
  5
82
330
80
100
AcDbEntity
  8
cuerpo
 62
     7
420
 16777215
370
    25
100
AcDbVertex
100
AcDb2dVertex
 10
56.50059948674291
 20
89.80606009039572
 30
0.0
  0
SEQEND
  5
83
330
80
100
AcDbEntity
  8
cuerpo
370
    25
  0
ENDBLK
  5
7F
330
7C
100
AcDbEntity
  8
0
100
AcDbBlockEnd
  0
BLOCK
  5
86
330
84
100
AcDbEntity
  8
0
100
AcDbBlockBegin
  2
block 11
 70
     0
 71
     0
 10
0.0
 20
0.0
 30
0.0
  3
block 11
  1

  0
POLYLINE
  5
88
330
84
100
AcDbEntity
  8
cuerpo
 62
     7
420
 16777215
370
    25
100
AcDb2dPolyline
 66
     1
 10
0.0
 20
0.0
 30
0.0
  0
VERTEX
  5
89
330
88
100
AcDbEntity
  8
cuerpo
 62
     7
420
 16777215
370
    25
100
AcDbVertex
100
AcDb2dVertex
 10
56.50059948674291
 20
89.80606009039572
 30
0.0
  0
VERTEX
  5
8A
330
88
100
AcDbEntity
  8
cuerpo
 62
     7
420
 16777215
370
    25
100
AcDbVertex
100
AcDb2dVertex
 10
56.50059948674291
 20
89.80606009039572
 30
0.0
  0
SEQEND
  5
8B
330
88
100
AcDbEntity
  8
cuerpo
370
    25
  0
ENDBLK
  5
87
330
84
100
AcDbEntity
  8
0
100
AcDbBlockEnd
  0
BLOCK
  5
8E
330
8C
100
AcDbEntity
  8
0
100
AcDbBlockBegin
  2
block 12
 70
     0
 71
     0
 10
0.0
 20
0.0
 30
0.0
  3
block 12
  1

  0
POLYLINE
  5
90
330
8C
100
AcDbEntity
  8
cuerpo
 62
     7
420
 16777215
370
    25
100
AcDb2dPolyline
 66
     1
 10
0.0
 20
0.0
 30
0.0
  0
VERTEX
  5
91
330
90
100
AcDbEntity
  8
cuerpo
 62
     7
420
 16777215
370
    25
100
AcDbVertex
100
AcDb2dVertex
 10
56.50059948674291
 20
89.80606009039572
 30
0.0
  0
VERTEX
  5
92
330
90
100
AcDbEntity
  8
cuerpo
 62
     7
420
 16777215
370
    25
100
AcDbVertex
100
AcDb2dVertex
 10
56.50059948674291
 20
89.80606009039572
 30
0.0
  0
SEQEND
  5
93
330
90
100
AcDbEntity
  8
cuerpo
370
    25
  0
ENDBLK
  5
8F
330
8C
100
AcDbEntity
  8
0
100
AcDbBlockEnd
  0
BLOCK
  5
96
330
94
100
AcDbEntity
  8
0
100
AcDbBlockBegin
  2
block 13
 70
     0
 71
     0
 10
0.0
 20
0.0
 30
0.0
  3
block 13
  1

  0
POLYLINE
  5
98
330
94
100
AcDbEntity
  8
cuerpo
 62
     7
420
 16777215
370
    25
100
AcDb2dPolyline
 66
     1
 10
0.0
 20
0.0
 30
0.0
  0
VERTEX
  5
99
330
98
100
AcDbEntity
  8
cuerpo
 62
     7
420
 16777215
370
    25
100
AcDbVertex
100
AcDb2dVertex
 10
56.50059948674291
 20
89.80606009039572
 30
0.0
  0
VERTEX
  5
9A
330
98
100
AcDbEntity
  8
cuerpo
 62
     7
420
 16777215
370
    25
100
AcDbVertex
100
AcDb2dVertex
 10
56.50059948674291
 20
89.80606009039572
 30
0.0
  0
SEQEND
  5
9B
330
98
100
AcDbEntity
  8
cuerpo
370
    25
  0
ENDBLK
  5
97
330
94
100
AcDbEntity
  8
0
100
AcDbBlockEnd
  0
BLOCK
  5
9E
330
9C
100
AcDbEntity
  8
0
100
AcDbBlockBegin
  2
block 14
 70
     0
 71
     0
 10
0.0
 20
0.0
 30
0.0
  3
block 14
  1

  0
POLYLINE
  5
A0
330
9C
100
AcDbEntity
  8
cuerpo
 62
     7
420
 16777215
370
    25
100
AcDb2dPolyline
 66
     1
 10
0.0
 20
0.0
 30
0.0
  0
VERTEX
  5
A1
330
A0
100
AcDbEntity
  8
cuerpo
 62
     7
420
 16777215
370
    25
100
AcDbVertex
100
AcDb2dVertex
 10
56.50059948674291
 20
89.80606009039572
 30
0.0
  0
VERTEX
  5
A2
330
A0
100
AcDbEntity
  8
cuerpo
 62
     7
420
 16777215
370
    25
100
AcDbVertex
100
AcDb2dVertex
 10
56.50059948674291
 20
89.80606009039572
 30
0.0
  0
SEQEND
  5
A3
330
A0
100
AcDbEntity
  8
cuerpo
370
    25
  0
ENDBLK
  5
9F
330
9C
100
AcDbEntity
  8
0
100
AcDbBlockEnd
  0
BLOCK
  5
A6
330
A4
100
AcDbEntity
  8
0
100
AcDbBlockBegin
  2
block 15
 70
     0
 71
     0
 10
0.0
 20
0.0
 30
0.0
  3
block 15
  1

  0
POLYLINE
  5
A8
330
A4
100
AcDbEntity
  8
cuerpo
 62
     7
420
 16777215
370
    25
100
AcDb2dPolyline
 66
     1
 10
0.0
 20
0.0
 30
0.0
  0
VERTEX
  5
A9
330
A8
100
AcDbEntity
  8
cuerpo
 62
     7
420
 16777215
370
    25
100
AcDbVertex
100
AcDb2dVertex
 10
56.50059948674291
 20
89.80606009039572
 30
0.0
  0
VERTEX
  5
AA
330
A8
100
AcDbEntity
  8
cuerpo
 62
     7
420
 16777215
370
    25
100
AcDbVertex
100
AcDb2dVertex
 10
56.50059948674291
 20
89.80606009039572
 30
0.0
  0
SEQEND
  5
AB
330
A8
100
AcDbEntity
  8
cuerpo
370
    25
  0
ENDBLK
  5
A7
330
A4
100
AcDbEntity
  8
0
100
AcDbBlockEnd
  0
BLOCK
  5
AE
330
AC
100
AcDbEntity
  8
0
100
AcDbBlockBegin
  2
block 16
 70
     0
 71
     0
 10
0.0
 20
0.0
 30
0.0
  3
block 16
  1

  0
POLYLINE
  5
B0
330
AC
100
AcDbEntity
  8
cuerpo
 62
     7
420
 16777215
370
    25
100
AcDb2dPolyline
 66
     1
 10
0.0
 20
0.0
 30
0.0
  0
VERTEX
  5
B1
330
B0
100
AcDbEntity
  8
cuerpo
 62
     7
420
 16777215
370
    25
100
AcDbVertex
100
AcDb2dVertex
 10
56.50059948674291
 20
89.80606009039572
 30
0.0
  0
VERTEX
  5
B2
330
B0
100
AcDbEntity
  8
cuerpo
 62
     7
420
 16777215
370
    25
100
AcDbVertex
100
AcDb2dVertex
 10
56.50059948674291
 20
89.80606009039572
 30
0.0
  0
SEQEND
  5
B3
330
B0
100
AcDbEntity
  8
cuerpo
370
    25
  0
ENDBLK
  5
AF
330
AC
100
AcDbEntity
  8
0
100
AcDbBlockEnd
  0
BLOCK
  5
B6
330
B4
100
AcDbEntity
  8
0
100
AcDbBlockBegin
  2
block 17
 70
     0
 71
     0
 10
0.0
 20
0.0
 30
0.0
  3
block 17
  1

  0
POLYLINE
  5
B8
330
B4
100
AcDbEntity
  8
cuerpo
 62
     7
420
 16777215
370
    25
100
AcDb2dPolyline
 66
     1
 10
0.0
 20
0.0
 30
0.0
  0
VERTEX
  5
B9
330
B8
100
AcDbEntity
  8
cuerpo
 62
     7
420
 16777215
370
    25
100
AcDbVertex
100
AcDb2dVertex
 10
56.50059948674291
 20
89.80606009039572
 30
0.0
  0
VERTEX
  5
BA
330
B8
100
AcDbEntity
  8
cuerpo
 62
     7
420
 16777215
370
    25
100
AcDbVertex
100
AcDb2dVertex
 10
56.50059948674291
 20
89.80606009039572
 30
0.0
  0
SEQEND
  5
BB
330
B8
100
AcDbEntity
  8
cuerpo
370
    25
  0
ENDBLK
  5
B7
330
B4
100
AcDbEntity
  8
0
100
AcDbBlockEnd
  0
BLOCK
  5
BE
330
BC
100
AcDbEntity
  8
0
100
AcDbBlockBegin
  2
block 18
 70
     0
 71
     0
 10
0.0
 20
0.0
 30
0.0
  3
block 18
  1

  0
POLYLINE
  5
C0
330
BC
100
AcDbEntity
  8
cuerpo
 62
     7
420
 16777215
370
    25
100
AcDb2dPolyline
 66
     1
 10
0.0
 20
0.0
 30
0.0
  0
VERTEX
  5
C1
330
C0
100
AcDbEntity
  8
cuerpo
 62
     7
420
 16777215
370
    25
100
AcDbVertex
100
AcDb2dVertex
 10
56.50059948674291
 20
89.80606009039572
 30
0.0
  0
VERTEX
  5
C2
330
C0
100
AcDbEntity
  8
cuerpo
 62
     7
420
 16777215
370
    25
100
AcDbVertex
100
AcDb2dVertex
 10
56.50059948674291
 20
89.80606009039572
 30
0.0
  0
SEQEND
  5
C3
330
C0
100
AcDbEntity
  8
cuerpo
370
    25
  0
ENDBLK
  5
BF
330
BC
100
AcDbEntity
  8
0
100
AcDbBlockEnd
  0
BLOCK
  5
C6
330
C4
100
AcDbEntity
  8
0
100
AcDbBlockBegin
  2
block 19
 70
     0
 71
     0
 10
0.0
 20
0.0
 30
0.0
  3
block 19
  1

  0
POLYLINE
  5
C8
330
C4
100
AcDbEntity
  8
cuerpo
 62
     7
420
 16777215
370
    25
100
AcDb2dPolyline
 66
     1
 10
0.0
 20
0.0
 30
0.0
  0
VERTEX
  5
C9
330
C8
100
AcDbEntity
  8
cuerpo
 62
     7
420
 16777215
370
    25
100
AcDbVertex
100
AcDb2dVertex
 10
56.50059948674291
 20
89.80606009039572
 30
0.0
  0
VERTEX
  5
CA
330
C8
100
AcDbEntity
  8
cuerpo
 62
     7
420
 16777215
370
    25
100
AcDbVertex
100
AcDb2dVertex
 10
56.50059948674291
 20
89.80606009039572
 30
0.0
  0
SEQEND
  5
CB
330
C8
100
AcDbEntity
  8
cuerpo
370
    25
  0
ENDBLK
  5
C7
330
C4
100
AcDbEntity
  8
0
100
AcDbBlockEnd
  0
BLOCK
  5
CE
330
CC
100
AcDbEntity
  8
0
100
AcDbBlockBegin
  2
block 20
 70
     0
 71
     0
 10
0.0
 20
0.0
 30
0.0
  3
block 20
  1

  0
POLYLINE
  5
D0
330
CC
100
AcDbEntity
  8
cuerpo
 62
     7
420
 16777215
370
    25
100
AcDb2dPolyline
 66
     1
 10
0.0
 20
0.0
 30
0.0
  0
VERTEX
  5
D1
330
D0
100
AcDbEntity
  8
cuerpo
 62
     7
420
 16777215
370
    25
100
AcDbVertex
100
AcDb2dVertex
 10
56.50059948674291
 20
89.80606009039572
 30
0.0
  0
VERTEX
  5
D2
330
D0
100
AcDbEntity
  8
cuerpo
 62
     7
420
 16777215
370
    25
100
AcDbVertex
100
AcDb2dVertex
 10
56.50059948674291
 20
89.80606009039572
 30
0.0
  0
SEQEND
  5
D3
330
D0
100
AcDbEntity
  8
cuerpo
370
    25
  0
ENDBLK
  5
CF
330
CC
100
AcDbEntity
  8
0
100
AcDbBlockEnd
  0
BLOCK
  5
D6
330
D4
100
AcDbEntity
  8
0
100
AcDbBlockBegin
  2
block 21
 70
     0
 71
     0
 10
0.0
 20
0.0
 30
0.0
  3
block 21
  1

  0
POLYLINE
  5
D8
330
D4
100
AcDbEntity
  8
cuerpo
 62
     7
420
 16777215
370
    25
100
AcDb2dPolyline
 66
     1
 10
0.0
 20
0.0
 30
0.0
  0
VERTEX
  5
D9
330
D8
100
AcDbEntity
  8
cuerpo
 62
     7
420
 16777215
370
    25
100
AcDbVertex
100
AcDb2dVertex
 10
56.50059948674291
 20
89.80606009039572
 30
0.0
  0
VERTEX
  5
DA
330
D8
100
AcDbEntity
  8
cuerpo
 62
     7
420
 16777215
370
    25
100
AcDbVertex
100
AcDb2dVertex
 10
56.50059948674291
 20
89.80606009039572
 30
0.0
  0
SEQEND
  5
DB
330
D8
100
AcDbEntity
  8
cuerpo
370
    25
  0
ENDBLK
  5
D7
330
D4
100
AcDbEntity
  8
0
100
AcDbBlockEnd
  0
BLOCK
  5
DE
330
DC
100
AcDbEntity
  8
0
100
AcDbBlockBegin
  2
block 22
 70
     0
 71
     0
 10
0.0
 20
0.0
 30
0.0
  3
block 22
  1

  0
POLYLINE
  5
E0
330
DC
100
AcDbEntity
  8
cuerpo
 62
     7
420
 16777215
370
    25
100
AcDb2dPolyline
 66
     1
 10
0.0
 20
0.0
 30
0.0
  0
VERTEX
  5
E1
330
E0
100
AcDbEntity
  8
cuerpo
 62
     7
420
 16777215
370
    25
100
AcDbVertex
100
AcDb2dVertex
 10
56.50059948674291
 20
89.80606009039572
 30
0.0
  0
VERTEX
  5
E2
330
E0
100
AcDbEntity
  8
cuerpo
 62
     7
420
 16777215
370
    25
100
AcDbVertex
100
AcDb2dVertex
 10
56.50059948674291
 20
89.80606009039572
 30
0.0
  0
SEQEND
  5
E3
330
E0
100
AcDbEntity
  8
cuerpo
370
    25
  0
ENDBLK
  5
DF
330
DC
100
AcDbEntity
  8
0
100
AcDbBlockEnd
  0
BLOCK
  5
E6
330
E4
100
AcDbEntity
  8
0
100
AcDbBlockBegin
  2
block 23
 70
     0
 71
     0
 10
0.0
 20
0.0
 30
0.0
  3
block 23
  1

  0
POLYLINE
  5
E8
330
E4
100
AcDbEntity
  8
cuerpo
 62
     7
420
 16777215
370
    25
100
AcDb2dPolyline
 66
     1
 10
0.0
 20
0.0
 30
0.0
  0
VERTEX
  5
E9
330
E8
100
AcDbEntity
  8
cuerpo
 62
     7
420
 16777215
370
    25
100
AcDbVertex
100
AcDb2dVertex
 10
56.50059948674291
 20
89.80606009039572
 30
0.0
  0
VERTEX
  5
754
330
E8
100
AcDbEntity
  8
0
100
AcDbVertex
100
AcDb2dVertex
 10
56.50059948674291
 20
89.80606009039572
 30
0.0
  0
SEQEND
  5
EA
330
E8
100
AcDbEntity
  8
cuerpo
370
    25
  0
ENDBLK
  5
E7
330
E4
100
AcDbEntity
  8
0
100
AcDbBlockEnd
  0
BLOCK
  5
ED
330
EB
100
AcDbEntity
  8
0
100
AcDbBlockBegin
  2
block 24
 70
     0
 71
     0
 10
0.0
 20
0.0
 30
0.0
  3
block 24
  1

  0
POLYLINE
  5
EF
330
EB
100
AcDbEntity
  8
cuerpo
 62
     7
420
 16777215
370
    25
100
AcDb2dPolyline
 66
     1
 10
0.0
 20
0.0
 30
0.0
  0
VERTEX
  5
F0
330
EF
100
AcDbEntity
  8
cuerpo
 62
     7
420
 16777215
370
    25
100
AcDbVertex
100
AcDb2dVertex
 10
56.50059948674291
 20
89.80606009039572
 30
0.0
  0
VERTEX
  5
F1
330
EF
100
AcDbEntity
  8
cuerpo
 62
     7
420
 16777215
370
    25
100
AcDbVertex
100
AcDb2dVertex
 10
56.50059948674291
 20
89.80606009039572
 30
0.0
  0
SEQEND
  5
F2
330
EF
100
AcDbEntity
  8
cuerpo
370
    25
  0
ENDBLK
  5
EE
330
EB
100
AcDbEntity
  8
0
100
AcDbBlockEnd
  0
BLOCK
  5
F5
330
F3
100
AcDbEntity
  8
0
100
AcDbBlockBegin
  2
block 25
 70
     0
 71
     0
 10
0.0
 20
0.0
 30
0.0
  3
block 25
  1

  0
POLYLINE
  5
F7
330
F3
100
AcDbEntity
  8
cuerpo
 62
     7
420
 16777215
370
    25
100
AcDb2dPolyline
 66
     1
 10
0.0
 20
0.0
 30
0.0
  0
VERTEX
  5
F8
330
F7
100
AcDbEntity
  8
cuerpo
 62
     7
420
 16777215
370
    25
100
AcDbVertex
100
AcDb2dVertex
 10
56.50059948674291
 20
89.80606009039572
 30
0.0
  0
VERTEX
  5
F9
330
F7
100
AcDbEntity
  8
cuerpo
 62
     7
420
 16777215
370
    25
100
AcDbVertex
100
AcDb2dVertex
 10
56.50059948674291
 20
89.80606009039572
 30
0.0
  0
SEQEND
  5
FA
330
F7
100
AcDbEntity
  8
cuerpo
370
    25
  0
ENDBLK
  5
F6
330
F3
100
AcDbEntity
  8
0
100
AcDbBlockEnd
  0
BLOCK
  5
FD
330
FB
100
AcDbEntity
  8
0
100
AcDbBlockBegin
  2
block 26
 70
     0
 71
     0
 10
0.0
 20
0.0
 30
0.0
  3
block 26
  1

  0
POLYLINE
  5
FF
330
FB
100
AcDbEntity
  8
cuerpo
 62
     7
420
 16777215
370
    25
100
AcDb2dPolyline
 66
     1
 10
0.0
 20
0.0
 30
0.0
  0
VERTEX
  5
100
330
FF
100
AcDbEntity
  8
cuerpo
 62
     7
420
 16777215
370
    25
100
AcDbVertex
100
AcDb2dVertex
 10
56.50059948674291
 20
89.80606009039572
 30
0.0
  0
VERTEX
  5
101
330
FF
100
AcDbEntity
  8
cuerpo
 62
     7
420
 16777215
370
    25
100
AcDbVertex
100
AcDb2dVertex
 10
56.50059948674291
 20
89.80606009039572
 30
0.0
  0
SEQEND
  5
102
330
FF
100
AcDbEntity
  8
cuerpo
370
    25
  0
ENDBLK
  5
FE
330
FB
100
AcDbEntity
  8
0
100
AcDbBlockEnd
  0
BLOCK
  5
105
330
103
100
AcDbEntity
  8
0
100
AcDbBlockBegin
  2
block 27
 70
     0
 71
     0
 10
0.0
 20
0.0
 30
0.0
  3
block 27
  1

  0
POLYLINE
  5
107
330
103
100
AcDbEntity
  8
cuerpo
 62
     7
420
 16777215
370
    25
100
AcDb2dPolyline
 66
     1
 10
0.0
 20
0.0
 30
0.0
  0
VERTEX
  5
108
330
107
100
AcDbEntity
  8
cuerpo
 62
     7
420
 16777215
370
    25
100
AcDbVertex
100
AcDb2dVertex
 10
56.50059948674291
 20
89.80606009039572
 30
0.0
  0
VERTEX
  5
109
330
107
100
AcDbEntity
  8
cuerpo
 62
     7
420
 16777215
370
    25
100
AcDbVertex
100
AcDb2dVertex
 10
56.50059948674291
 20
89.80606009039572
 30
0.0
  0
SEQEND
  5
10A
330
107
100
AcDbEntity
  8
cuerpo
370
    25
  0
ENDBLK
  5
106
330
103
100
AcDbEntity
  8
0
100
AcDbBlockEnd
  0
BLOCK
  5
10D
330
10B
100
AcDbEntity
  8
0
100
AcDbBlockBegin
  2
block 28
 70
     0
 71
     0
 10
0.0
 20
0.0
 30
0.0
  3
block 28
  1

  0
POLYLINE
  5
10F
330
10B
100
AcDbEntity
  8
cuerpo
 62
     7
420
 16777215
370
    25
100
AcDb2dPolyline
 66
     1
 10
0.0
 20
0.0
 30
0.0
  0
VERTEX
  5
110
330
10F
100
AcDbEntity
  8
cuerpo
 62
     7
420
 16777215
370
    25
100
AcDbVertex
100
AcDb2dVertex
 10
56.50059948674291
 20
89.80606009039572
 30
0.0
  0
VERTEX
  5
111
330
10F
100
AcDbEntity
  8
cuerpo
 62
     7
420
 16777215
370
    25
100
AcDbVertex
100
AcDb2dVertex
 10
56.50059948674291
 20
89.80606009039572
 30
0.0
  0
SEQEND
  5
112
330
10F
100
AcDbEntity
  8
cuerpo
370
    25
  0
ENDBLK
  5
10E
330
10B
100
AcDbEntity
  8
0
100
AcDbBlockEnd
  0
BLOCK
  5
115
330
113
100
AcDbEntity
  8
0
100
AcDbBlockBegin
  2
block 29
 70
     0
 71
     0
 10
0.0
 20
0.0
 30
0.0
  3
block 29
  1

  0
POLYLINE
  5
117
330
113
100
AcDbEntity
  8
cuerpo
 62
     7
420
 16777215
370
    25
100
AcDb2dPolyline
 66
     1
 10
0.0
 20
0.0
 30
0.0
  0
VERTEX
  5
118
330
117
100
AcDbEntity
  8
cuerpo
 62
     7
420
 16777215
370
    25
100
AcDbVertex
100
AcDb2dVertex
 10
56.50059948674291
 20
89.80606009039572
 30
0.0
  0
VERTEX
  5
119
330
117
100
AcDbEntity
  8
cuerpo
 62
     7
420
 16777215
370
    25
100
AcDbVertex
100
AcDb2dVertex
 10
56.50059948674291
 20
89.80606009039572
 30
0.0
  0
SEQEND
  5
11A
330
117
100
AcDbEntity
  8
cuerpo
370
    25
  0
ENDBLK
  5
116
330
113
100
AcDbEntity
  8
0
100
AcDbBlockEnd
  0
BLOCK
  5
11D
330
11B
100
AcDbEntity
  8
0
100
AcDbBlockBegin
  2
block 30
 70
     0
 71
     0
 10
0.0
 20
0.0
 30
0.0
  3
block 30
  1

  0
POLYLINE
  5
11F
330
11B
100
AcDbEntity
  8
cuerpo
 62
     7
420
 16777215
370
    25
100
AcDb2dPolyline
 66
     1
 10
0.0
 20
0.0
 30
0.0
  0
VERTEX
  5
120
330
11F
100
AcDbEntity
  8
cuerpo
 62
     7
420
 16777215
370
    25
100
AcDbVertex
100
AcDb2dVertex
 10
56.50059948674291
 20
89.80606009039572
 30
0.0
  0
VERTEX
  5
755
330
11F
100
AcDbEntity
  8
0
100
AcDbVertex
100
AcDb2dVertex
 10
56.50059948674291
 20
89.80606009039572
 30
0.0
  0
SEQEND
  5
121
330
11F
100
AcDbEntity
  8
cuerpo
370
    25
  0
ENDBLK
  5
11E
330
11B
100
AcDbEntity
  8
0
100
AcDbBlockEnd
  0
BLOCK
  5
124
330
122
100
AcDbEntity
  8
0
100
AcDbBlockBegin
  2
block 31
 70
     0
 71
     0
 10
0.0
 20
0.0
 30
0.0
  3
block 31
  1

  0
POLYLINE
  5
126
330
122
100
AcDbEntity
  8
cuerpo
 62
     7
420
 16777215
370
    25
100
AcDb2dPolyline
 66
     1
 10
0.0
 20
0.0
 30
0.0
  0
VERTEX
  5
127
330
126
100
AcDbEntity
  8
cuerpo
 62
     7
420
 16777215
370
    25
100
AcDbVertex
100
AcDb2dVertex
 10
56.50059948674291
 20
89.80606009039572
 30
0.0
  0
VERTEX
  5
128
330
126
100
AcDbEntity
  8
cuerpo
 62
     7
420
 16777215
370
    25
100
AcDbVertex
100
AcDb2dVertex
 10
56.50059948674291
 20
89.80606009039572
 30
0.0
  0
SEQEND
  5
129
330
126
100
AcDbEntity
  8
cuerpo
370
    25
  0
ENDBLK
  5
125
330
122
100
AcDbEntity
  8
0
100
AcDbBlockEnd
  0
BLOCK
  5
12C
330
12A
100
AcDbEntity
  8
0
100
AcDbBlockBegin
  2
block 32
 70
     0
 71
     0
 10
0.0
 20
0.0
 30
0.0
  3
block 32
  1

  0
POLYLINE
  5
12E
330
12A
100
AcDbEntity
  8
cuerpo
 62
     7
420
 16777215
370
    25
100
AcDb2dPolyline
 66
     1
 10
0.0
 20
0.0
 30
0.0
  0
VERTEX
  5
12F
330
12E
100
AcDbEntity
  8
cuerpo
 62
     7
420
 16777215
370
    25
100
AcDbVertex
100
AcDb2dVertex
 10
31.9575669950488
 20
80.7668185561972
 30
0.0
  0
VERTEX
  5
130
330
12E
100
AcDbEntity
  8
cuerpo
 62
     7
420
 16777215
370
    25
100
AcDbVertex
100
AcDb2dVertex
 10
31.9575669950488
 20
39.55693087118716
 30
0.0
  0
SEQEND
  5
131
330
12E
100
AcDbEntity
  8
cuerpo
370
    25
  0
ENDBLK
  5
12D
330
12A
100
AcDbEntity
  8
0
100
AcDbBlockEnd
  0
BLOCK
  5
134
330
132
100
AcDbEntity
  8
0
100
AcDbBlockBegin
  2
block 33
 70
     0
 71
     0
 10
0.0
 20
0.0
 30
0.0
  3
block 33
  1

  0
POLYLINE
  5
136
330
132
100
AcDbEntity
  8
cuerpo
 62
     7
420
 16777215
370
    25
100
AcDb2dPolyline
 66
     1
 10
0.0
 20
0.0
 30
0.0
  0
VERTEX
  5
137
330
136
100
AcDbEntity
  8
cuerpo
 62
     7
420
 16777215
370
    25
100
AcDbVertex
100
AcDb2dVertex
 10
22.07496608606112
 20
39.55693087118716
 30
0.0
  0
VERTEX
  5
138
330
136
100
AcDbEntity
  8
cuerpo
 62
     7
420
 16777215
370
    25
100
AcDbVertex
100
AcDb2dVertex
 10
22.07496608606112
 20
93.41617564938902
 30
0.0
  0
SEQEND
  5
139
330
136
100
AcDbEntity
  8
cuerpo
370
    25
  0
ENDBLK
  5
135
330
132
100
AcDbEntity
  8
0
100
AcDbBlockEnd
  0
BLOCK
  5
13C
330
13A
100
AcDbEntity
  8
0
100
AcDbBlockBegin
  2
block 34
 70
     0
 71
     0
 10
0.0
 20
0.0
 30
0.0
  3
block 34
  1

  0
POLYLINE
  5
13E
330
13A
100
AcDbEntity
  8
cuerpo
 62
     7
420
 16777215
370
    25
100
AcDb2dPolyline
 66
     1
 10
0.0
 20
0.0
 30
0.0
  0
VERTEX
  5
13F
330
13E
100
AcDbEntity
  8
cuerpo
 62
     7
420
 16777215
370
    25
100
AcDbVertex
100
AcDb2dVertex
 10
22.07496608606112
 20
89.66067706091818
 30
0.0
  0
VERTEX
  5
140
330
13E
100
AcDbEntity
  8
cuerpo
 62
     7
420
 16777215
370
    25
100
AcDbVertex
100
AcDb2dVertex
 10
22.07496608606112
 20
93.41617564938902
 30
0.0
  0
SEQEND
  5
141
330
13E
100
AcDbEntity
  8
cuerpo
370
    25
  0
ENDBLK
  5
13D
330
13A
100
AcDbEntity
  8
0
100
AcDbBlockEnd
  0
BLOCK
  5
144
330
142
100
AcDbEntity
  8
0
100
AcDbBlockBegin
  2
block 35
 70
     0
 71
     0
 10
0.0
 20
0.0
 30
0.0
  3
block 35
  1

  0
POLYLINE
  5
146
330
142
100
AcDbEntity
  8
cuerpo
 62
     7
420
 16777215
370
    25
100
AcDb2dPolyline
 66
     1
 10
0.0
 20
0.0
 30
0.0
  0
VERTEX
  5
147
330
146
100
AcDbEntity
  8
cuerpo
 62
     7
420
 16777215
370
    25
100
AcDbVertex
100
AcDb2dVertex
 10
52.40076360452134
 20
89.67583548105327
 30
0.0
  0
VERTEX
  5
148
330
146
100
AcDbEntity
  8
cuerpo
 62
     7
420
 16777215
370
    25
100
AcDbVertex
100
AcDb2dVertex
 10
57.61129827118746
 20
90.5946424469694
 30
0.0
  0
SEQEND
  5
149
330
146
100
AcDbEntity
  8
cuerpo
370
    25
  0
ENDBLK
  5
145
330
142
100
AcDbEntity
  8
0
100
AcDbBlockEnd
  0
BLOCK
  5
14C
330
14A
100
AcDbEntity
  8
0
100
AcDbBlockBegin
  2
block 36
 70
     0
 71
     0
 10
0.0
 20
0.0
 30
0.0
  3
block 36
  1

  0
POLYLINE
  5
14E
330
14A
100
AcDbEntity
  8
cuerpo
 62
     7
420
 16777215
370
    25
100
AcDb2dPolyline
 66
     1
 10
0.0
 20
0.0
 30
0.0
  0
VERTEX
  5
14F
330
14E
100
AcDbEntity
  8
cuerpo
 62
     7
420
 16777215
370
    25
100
AcDbVertex
100
AcDb2dVertex
 10
57.65212265268767
 20
93.36656627440142
 30
0.0
  0
VERTEX
  5
150
330
14E
100
AcDbEntity
  8
cuerpo
 62
     7
420
 16777215
370
    25
100
AcDbVertex
100
AcDb2dVertex
 10
57.65212265268767
 20
90.76793074987746
 30
0.0
  0
SEQEND
  5
151
330
14E
100
AcDbEntity
  8
cuerpo
370
    25
  0
ENDBLK
  5
14D
330
14A
100
AcDbEntity
  8
0
100
AcDbBlockEnd
  0
BLOCK
  5
154
330
152
100
AcDbEntity
  8
0
100
AcDbBlockBegin
  2
block 37
 70
     0
 71
     0
 10
0.0
 20
0.0
 30
0.0
  3
block 37
  1

  0
POLYLINE
  5
156
330
152
100
AcDbEntity
  8
cuerpo
 62
     7
420
 16777215
370
    25
100
AcDb2dPolyline
 66
     1
 10
0.0
 20
0.0
 30
0.0
  0
VERTEX
  5
157
330
156
100
AcDbEntity
  8
cuerpo
 62
     7
420
 16777215
370
    25
100
AcDbVertex
100
AcDb2dVertex
 10
52.22902559458164
 20
89.66067706091818
 30
0.0
  0
VERTEX
  5
158
330
156
100
AcDbEntity
  8
cuerpo
 62
     7
420
 16777215
370
    25
100
AcDbVertex
100
AcDb2dVertex
 10
40.85177000931831
 20
89.66067706091818
 30
0.0
  0
SEQEND
  5
159
330
156
100
AcDbEntity
  8
cuerpo
370
    25
  0
ENDBLK
  5
155
330
152
100
AcDbEntity
  8
0
100
AcDbBlockEnd
  0
BLOCK
  5
15C
330
15A
100
AcDbEntity
  8
0
100
AcDbBlockBegin
  2
block 38
 70
     0
 71
     0
 10
0.0
 20
0.0
 30
0.0
  3
block 38
  1

  0
SPLINE
  5
15E
330
15A
100
AcDbEntity
  8
cuerpo
 62
     7
420
 16777215
370
    25
100
AcDbSpline
210
0.0
220
0.0
230
1.0
 70
     8
 71
     3
 72
     8
 73
     4
 74
     0
 42
0.0000000001
 43
0.0000000001
 40
0.0
 40
0.0
 40
0.0
 40
0.0
 40
1.0
 40
1.0
 40
1.0
 40
1.0
 10
40.85177000931831
 20
89.66067706091818
 30
0.0
 10
35.93958061167483
 20
89.66067706091818
 30
0.0
 10
31.9575669950488
 20
85.67849118951789
 30
0.0
 10
31.9575669950488
 20
80.76647404664867
 30
0.0
  0
ENDBLK
  5
15D
330
15A
100
AcDbEntity
  8
0
100
AcDbBlockEnd
  0
BLOCK
  5
161
330
15F
100
AcDbEntity
  8
0
100
AcDbBlockBegin
  2
block 39
 70
     0
 71
     0
 10
0.0
 20
0.0
 30
0.0
  3
block 39
  1

  0
POLYLINE
  5
163
330
15F
100
AcDbEntity
  8
cuerpo
 62
     7
420
 16777215
370
    25
100
AcDb2dPolyline
 66
     1
 10
0.0
 20
0.0
 30
0.0
  0
VERTEX
  5
164
330
163
100
AcDbEntity
  8
cuerpo
 62
     7
420
 16777215
370
    25
100
AcDbVertex
100
AcDb2dVertex
 10
57.65212265268767
 20
93.36656627440142
 30
0.0
  0
VERTEX
  5
165
330
163
100
AcDbEntity
  8
cuerpo
 62
     7
420
 16777215
370
    25
100
AcDbVertex
100
AcDb2dVertex
 10
57.65212265268767
 20
90.64321829331142
 30
0.0
  0
SEQEND
  5
166
330
163
100
AcDbEntity
  8
cuerpo
370
    25
  0
ENDBLK
  5
162
330
15F
100
AcDbEntity
  8
0
100
AcDbBlockEnd
  0
BLOCK
  5
169
330
167
100
AcDbEntity
  8
0
100
AcDbBlockBegin
  2
block 40
 70
     0
 71
     0
 10
0.0
 20
0.0
 30
0.0
  3
block 40
  1

  0
SPLINE
  5
16B
330
167
100
AcDbEntity
  8
cuerpo
 62
     7
420
 16777215
370
    25
100
AcDbSpline
210
0.0
220
0.0
230
1.0
 70
     8
 71
     3
 72
     8
 73
     4
 74
     0
 42
0.0000000001
 43
0.0000000001
 40
0.0
 40
0.0
 40
0.0
 40
0.0
 40
1.0
 40
1.0
 40
1.0
 40
1.0
 10
52.22902559458164
 20
89.66067706091818
 30
0.0
 10
52.28655868918531
 20
89.66067706091818
 30
0.0
 10
52.34391952901472
 20
89.66584470414604
 30
0.0
 10
52.40076360452134
 20
89.67583548105327
 30
0.0
  0
ENDBLK
  5
16A
330
167
100
AcDbEntity
  8
0
100
AcDbBlockEnd
  0
BLOCK
  5
16E
330
16C
100
AcDbEntity
  8
0
100
AcDbBlockBegin
  2
block 41
 70
     0
 71
     0
 10
0.0
 20
0.0
 30
0.0
  3
block 41
  1

  0
SPLINE
  5
170
330
16C
100
AcDbEntity
  8
cuerpo
 62
     7
420
 16777215
370
    25
100
AcDbSpline
210
0.0
220
0.0
230
1.0
 70
     8
 71
     3
 72
     8
 73
     4
 74
     0
 42
0.0000000001
 43
0.0000000001
 40
0.0
 40
0.0
 40
0.0
 40
0.0
 40
1.0
 40
1.0
 40
1.0
 40
1.0
 10
57.61129827118746
 20
90.5946424469694
 30
0.0
 10
57.63489717526141
 20
90.5987765615517
 30
0.0
 10
57.65212265268767
 20
90.61910262491467
 30
0.0
 10
57.65212265268767
 20
90.64321829331142
 30
0.0
  0
ENDBLK
  5
16F
330
16C
100
AcDbEntity
  8
0
100
AcDbBlockEnd
  0
BLOCK
  5
173
330
171
100
AcDbEntity
  8
0
100
AcDbBlockBegin
  2
block 42
 70
     0
 71
     0
 10
0.0
 20
0.0
 30
0.0
  3
block 42
  1

  0
POLYLINE
  5
175
330
171
100
AcDbEntity
  8
cuerpo
 62
     7
420
 16777215
370
    25
100
AcDb2dPolyline
 66
     1
 10
0.0
 20
0.0
 30
0.0
  0
VERTEX
  5
176
330
175
100
AcDbEntity
  8
cuerpo
 62
     7
420
 16777215
370
    25
100
AcDbVertex
100
AcDb2dVertex
 10
52.82175427281887
 20
88.55204533376477
 30
0.0
  0
VERTEX
  5
177
330
175
100
AcDbEntity
  8
cuerpo
 62
     7
420
 16777215
370
    25
100
AcDbVertex
100
AcDb2dVertex
 10
52.51548528418016
 20
89.69616154441624
 30
0.0
  0
SEQEND
  5
178
330
175
100
AcDbEntity
  8
cuerpo
370
    25
  0
ENDBLK
  5
174
330
171
100
AcDbEntity
  8
0
100
AcDbBlockEnd
  0
BLOCK
  5
17B
330
179
100
AcDbEntity
  8
0
100
AcDbBlockBegin
  2
block 43
 70
     0
 71
     0
 10
0.0
 20
0.0
 30
0.0
  3
block 43
  1

  0
POLYLINE
  5
17D
330
179
100
AcDbEntity
  8
cuerpo
 62
     7
420
 16777215
370
    25
100
AcDb2dPolyline
 66
     1
 10
0.0
 20
0.0
 30
0.0
  0
VERTEX
  5
17E
330
17D
100
AcDbEntity
  8
cuerpo
 62
     7
420
 16777215
370
    25
100
AcDbVertex
100
AcDb2dVertex
 10
53.96776528598723
 20
88.85900334150053
 30
0.0
  0
VERTEX
  5
17F
330
17D
100
AcDbEntity
  8
cuerpo
 62
     7
420
 16777215
370
    25
100
AcDbVertex
100
AcDb2dVertex
 10
53.86527369530104
 20
89.24106443081473
 30
0.0
  0
SEQEND
  5
180
330
17D
100
AcDbEntity
  8
cuerpo
370
    25
  0
ENDBLK
  5
17C
330
179
100
AcDbEntity
  8
0
100
AcDbBlockEnd
  0
BLOCK
  5
183
330
181
100
AcDbEntity
  8
0
100
AcDbBlockBegin
  2
block 44
 70
     0
 71
     0
 10
0.0
 20
0.0
 30
0.0
  3
block 44
  1

  0
POLYLINE
  5
185
330
181
100
AcDbEntity
  8
cuerpo
 62
     7
420
 16777215
370
    25
100
AcDb2dPolyline
 66
     1
 10
0.0
 20
0.0
 30
0.0
  0
VERTEX
  5
186
330
185
100
AcDbEntity
  8
cuerpo
 62
     7
420
 16777215
370
    25
100
AcDbVertex
100
AcDb2dVertex
 10
53.96776528598723
 20
88.85900334150053
 30
0.0
  0
VERTEX
  5
187
330
185
100
AcDbEntity
  8
cuerpo
 62
     7
420
 16777215
370
    25
100
AcDbVertex
100
AcDb2dVertex
 10
52.82175427281887
 20
88.55204533376477
 30
0.0
  0
SEQEND
  5
188
330
185
100
AcDbEntity
  8
cuerpo
370
    25
  0
ENDBLK
  5
184
330
181
100
AcDbEntity
  8
0
100
AcDbBlockEnd
  0
BLOCK
  5
18B
330
189
100
AcDbEntity
  8
0
100
AcDbBlockBegin
  2
block 45
 70
     0
 71
     0
 10
0.0
 20
0.0
 30
0.0
  3
block 45
  1

  0
POLYLINE
  5
18D
330
189
100
AcDbEntity
  8
cuerpo
 62
     7
420
 16777215
370
    25
100
AcDb2dPolyline
 66
     1
 10
0.0
 20
0.0
 30
0.0
  0
VERTEX
  5
18E
330
18D
100
AcDbEntity
  8
cuerpo
 62
     7
420
 16777215
370
    25
100
AcDbVertex
100
AcDb2dVertex
 10
52.82175427281887
 20
88.55204533376477
 30
0.0
  0
VERTEX
  5
18F
330
18D
100
AcDbEntity
  8
cuerpo
 62
     7
420
 16777215
370
    25
100
AcDbVertex
100
AcDb2dVertex
 10
53.01123452450761
 20
88.3980495655741
 30
0.0
  0
SEQEND
  5
190
330
18D
100
AcDbEntity
  8
cuerpo
370
    25
  0
ENDBLK
  5
18C
330
189
100
AcDbEntity
  8
0
100
AcDbBlockEnd
  0
BLOCK
  5
193
330
191
100
AcDbEntity
  8
0
100
AcDbBlockBegin
  2
block 46
 70
     0
 71
     0
 10
0.0
 20
0.0
 30
0.0
  3
block 46
  1

  0
POLYLINE
  5
195
330
191
100
AcDbEntity
  8
cuerpo
 62
     7
420
 16777215
370
    25
100
AcDb2dPolyline
 66
     1
 10
0.0
 20
0.0
 30
0.0
  0
VERTEX
  5
196
330
195
100
AcDbEntity
  8
cuerpo
 62
     7
420
 16777215
370
    25
100
AcDbVertex
100
AcDb2dVertex
 10
56.15677895731498
 20
89.85463593673774
 30
0.0
  0
VERTEX
  5
197
330
195
100
AcDbEntity
  8
cuerpo
 62
     7
420
 16777215
370
    25
100
AcDbVertex
100
AcDb2dVertex
 10
53.86527369530104
 20
89.24106443081473
 30
0.0
  0
SEQEND
  5
198
330
195
100
AcDbEntity
  8
cuerpo
370
    25
  0
ENDBLK
  5
194
330
191
100
AcDbEntity
  8
0
100
AcDbBlockEnd
  0
BLOCK
  5
19B
330
199
100
AcDbEntity
  8
0
100
AcDbBlockBegin
  2
block 47
 70
     0
 71
     0
 10
0.0
 20
0.0
 30
0.0
  3
block 47
  1

  0
SPLINE
  5
19D
330
199
100
AcDbEntity
  8
cuerpo
 62
     7
420
 16777215
370
    25
100
AcDbSpline
210
0.0
220
0.0
230
1.0
 70
     8
 71
     3
 72
     8
 73
     4
 74
     0
 42
0.0000000001
 43
0.0000000001
 40
0.0
 40
0.0
 40
0.0
 40
0.0
 40
1.0
 40
1.0
 40
1.0
 40
1.0
 10
53.96776528598723
 20
88.85900334150053
 30
0.0
 10
54.77839625366651
 20
88.80319279463949
 30
0.0
 10
55.58454859721498
 20
89.01954479111318
 30
0.0
 10
56.25909829322689
 20
89.47291935697206
 30
0.0
  0
ENDBLK
  5
19C
330
199
100
AcDbEntity
  8
0
100
AcDbBlockEnd
  0
BLOCK
  5
1A0
330
19E
100
AcDbEntity
  8
0
100
AcDbBlockBegin
  2
block 48
 70
     0
 71
     0
 10
0.0
 20
0.0
 30
0.0
  3
block 48
  1

  0
POLYLINE
  5
1A2
330
19E
100
AcDbEntity
  8
cuerpo
 62
     7
420
 16777215
370
    25
100
AcDb2dPolyline
 66
     1
 10
0.0
 20
0.0
 30
0.0
  0
VERTEX
  5
1A3
330
1A2
100
AcDbEntity
  8
cuerpo
 62
     7
420
 16777215
370
    25
100
AcDbVertex
100
AcDb2dVertex
 10
57.31777613584417
 20
89.5521565531328
 30
0.0
  0
VERTEX
  5
1A4
330
1A2
100
AcDbEntity
  8
cuerpo
 62
     7
420
 16777215
370
    25
100
AcDbVertex
100
AcDb2dVertex
 10
53.01123452450761
 20
88.3980495655741
 30
0.0
  0
SEQEND
  5
1A5
330
1A2
100
AcDbEntity
  8
cuerpo
370
    25
  0
ENDBLK
  5
1A1
330
19E
100
AcDbEntity
  8
0
100
AcDbBlockEnd
  0
BLOCK
  5
1A8
330
1A6
100
AcDbEntity
  8
0
100
AcDbBlockBegin
  2
block 49
 70
     0
 71
     0
 10
0.0
 20
0.0
 30
0.0
  3
block 49
  1

  0
POLYLINE
  5
1AA
330
1A6
100
AcDbEntity
  8
cuerpo
 62
     7
420
 16777215
370
    25
100
AcDb2dPolyline
 66
     1
 10
0.0
 20
0.0
 30
0.0
  0
VERTEX
  5
1AB
330
1AA
100
AcDbEntity
  8
cuerpo
 62
     7
420
 16777215
370
    25
100
AcDbVertex
100
AcDb2dVertex
 10
56.25909829322689
 20
89.47291935697206
 30
0.0
  0
VERTEX
  5
1AC
330
1AA
100
AcDbEntity
  8
cuerpo
 62
     7
420
 16777215
370
    25
100
AcDbVertex
100
AcDb2dVertex
 10
56.15677895731498
 20
89.85463593673774
 30
0.0
  0
SEQEND
  5
1AD
330
1AA
100
AcDbEntity
  8
cuerpo
370
    25
  0
ENDBLK
  5
1A9
330
1A6
100
AcDbEntity
  8
0
100
AcDbBlockEnd
  0
BLOCK
  5
1B0
330
1AE
100
AcDbEntity
  8
0
100
AcDbBlockBegin
  2
block 50
 70
     0
 71
     0
 10
0.0
 20
0.0
 30
0.0
  3
block 50
  1

  0
POLYLINE
  5
1B2
330
1AE
100
AcDbEntity
  8
cuerpo
 62
     7
420
 16777215
370
    25
100
AcDb2dPolyline
 66
     1
 10
0.0
 20
0.0
 30
0.0
  0
VERTEX
  5
1B3
330
1B2
100
AcDbEntity
  8
cuerpo
 62
     7
420
 16777215
370
    25
100
AcDbVertex
100
AcDb2dVertex
 10
57.40476479684673
 20
89.77987736470781
 30
0.0
  0
VERTEX
  5
1B4
330
1B2
100
AcDbEntity
  8
cuerpo
 62
     7
420
 16777215
370
    25
100
AcDbVertex
100
AcDb2dVertex
 10
56.25909829322689
 20
89.47291935697206
 30
0.0
  0
SEQEND
  5
1B5
330
1B2
100
AcDbEntity
  8
cuerpo
370
    25
  0
ENDBLK
  5
1B1
330
1AE
100
AcDbEntity
  8
0
100
AcDbBlockEnd
  0
BLOCK
  5
1B8
330
1B6
100
AcDbEntity
  8
0
100
AcDbBlockBegin
  2
block 51
 70
     0
 71
     0
 10
0.0
 20
0.0
 30
0.0
  3
block 51
  1

  0
POLYLINE
  5
1BA
330
1B6
100
AcDbEntity
  8
cuerpo
 62
     7
420
 16777215
370
    25
100
AcDb2dPolyline
 66
     1
 10
0.0
 20
0.0
 30
0.0
  0
VERTEX
  5
1BB
330
1BA
100
AcDbEntity
  8
cuerpo
 62
     7
420
 16777215
370
    25
100
AcDbVertex
100
AcDb2dVertex
 10
57.40476479684673
 20
89.77987736470781
 30
0.0
  0
VERTEX
  5
1BC
330
1BA
100
AcDbEntity
  8
cuerpo
 62
     7
420
 16777215
370
    25
100
AcDbVertex
100
AcDb2dVertex
 10
57.31777613584417
 20
89.5521565531328
 30
0.0
  0
SEQEND
  5
1BD
330
1BA
100
AcDbEntity
  8
cuerpo
370
    25
  0
ENDBLK
  5
1B9
330
1B6
100
AcDbEntity
  8
0
100
AcDbBlockEnd
  0
BLOCK
  5
1C0
330
1BE
100
AcDbEntity
  8
0
100
AcDbBlockBegin
  2
block 52
 70
     0
 71
     0
 10
0.0
 20
0.0
 30
0.0
  3
block 52
  1

  0
POLYLINE
  5
1C2
330
1BE
100
AcDbEntity
  8
cuerpo
 62
     7
420
 16777215
370
    25
100
AcDb2dPolyline
 66
     1
 10
0.0
 20
0.0
 30
0.0
  0
VERTEX
  5
1C3
330
1C2
100
AcDbEntity
  8
cuerpo
 62
     7
420
 16777215
370
    25
100
AcDbVertex
100
AcDb2dVertex
 10
57.40476479684673
 20
89.77987736470781
 30
0.0
  0
VERTEX
  5
1C4
330
1C2
100
AcDbEntity
  8
cuerpo
 62
     7
420
 16777215
370
    25
100
AcDbVertex
100
AcDb2dVertex
 10
57.20546602302502
 20
90.5229844608762
 30
0.0
  0
SEQEND
  5
1C5
330
1C2
100
AcDbEntity
  8
cuerpo
370
    25
  0
ENDBLK
  5
1C1
330
1BE
100
AcDbEntity
  8
0
100
AcDbBlockEnd
  0
BLOCK
  5
1C8
330
1C6
100
AcDbEntity
  8
0
100
AcDbBlockBegin
  2
block 53
 70
     0
 71
     0
 10
0.0
 20
0.0
 30
0.0
  3
block 53
  1

  0
POLYLINE
  5
1CA
330
1C6
100
AcDbEntity
  8
cuerpo
 62
     7
420
 16777215
370
    25
100
AcDb2dPolyline
 66
     1
 10
0.0
 20
0.0
 30
0.0
  0
VERTEX
  5
1CB
330
1CA
100
AcDbEntity
  8
cuerpo
 62
     7
420
 16777215
370
    25
100
AcDbVertex
100
AcDb2dVertex
 10
31.13728976001082
 20
35.23884818997501
 30
0.0
  0
VERTEX
  5
1CC
330
1CA
100
AcDbEntity
  8
cuerpo
 62
     7
420
 16777215
370
    25
100
AcDbVertex
100
AcDb2dVertex
 10
31.13728976001082
 20
34.54707301653684
 30
0.0
  0
SEQEND
  5
1CD
330
1CA
100
AcDbEntity
  8
cuerpo
370
    25
  0
ENDBLK
  5
1C9
330
1C6
100
AcDbEntity
  8
0
100
AcDbBlockEnd
  0
BLOCK
  5
1D0
330
1CE
100
AcDbEntity
  8
0
100
AcDbBlockBegin
  2
block 54
 70
     0
 71
     0
 10
0.0
 20
0.0
 30
0.0
  3
block 54
  1

  0
POLYLINE
  5
1D2
330
1CE
100
AcDbEntity
  8
cuerpo
 62
     7
420
 16777215
370
    25
100
AcDb2dPolyline
 66
     1
 10
0.0
 20
0.0
 30
0.0
  0
VERTEX
  5
1D3
330
1D2
100
AcDbEntity
  8
cuerpo
 62
     7
420
 16777215
370
    25
100
AcDbVertex
100
AcDb2dVertex
 10
30.19832898550597
 20
34.54707301653684
 30
0.0
  0
VERTEX
  5
1D4
330
1D2
100
AcDbEntity
  8
cuerpo
 62
     7
420
 16777215
370
    25
100
AcDbVertex
100
AcDb2dVertex
 10
31.13728976001082
 20
34.54707301653684
 30
0.0
  0
SEQEND
  5
1D5
330
1D2
100
AcDbEntity
  8
cuerpo
370
    25
  0
ENDBLK
  5
1D1
330
1CE
100
AcDbEntity
  8
0
100
AcDbBlockEnd
  0
BLOCK
  5
1D8
330
1D6
100
AcDbEntity
  8
0
100
AcDbBlockBegin
  2
block 55
 70
     0
 71
     0
 10
0.0
 20
0.0
 30
0.0
  3
block 55
  1

  0
POLYLINE
  5
1DA
330
1D6
100
AcDbEntity
  8
cuerpo
 62
     7
420
 16777215
370
    25
100
AcDb2dPolyline
 66
     1
 10
0.0
 20
0.0
 30
0.0
  0
VERTEX
  5
1DB
330
1DA
100
AcDbEntity
  8
cuerpo
 62
     7
420
 16777215
370
    25
100
AcDbVertex
100
AcDb2dVertex
 10
23.82421331869672
 20
34.54707301653684
 30
0.0
  0
VERTEX
  5
1DC
330
1DA
100
AcDbEntity
  8
cuerpo
 62
     7
420
 16777215
370
    25
100
AcDbVertex
100
AcDb2dVertex
 10
30.19832898550597
 20
34.54707301653684
 30
0.0
  0
SEQEND
  5
1DD
330
1DA
100
AcDbEntity
  8
cuerpo
370
    25
  0
ENDBLK
  5
1D9
330
1D6
100
AcDbEntity
  8
0
100
AcDbBlockEnd
  0
BLOCK
  5
1E0
330
1DE
100
AcDbEntity
  8
0
100
AcDbBlockBegin
  2
block 56
 70
     0
 71
     0
 10
0.0
 20
0.0
 30
0.0
  3
block 56
  1

  0
POLYLINE
  5
1E2
330
1DE
100
AcDbEntity
  8
cuerpo
 62
     7
420
 16777215
370
    25
100
AcDb2dPolyline
 66
     1
 10
0.0
 20
0.0
 30
0.0
  0
VERTEX
  5
1E3
330
1E2
100
AcDbEntity
  8
cuerpo
 62
     7
420
 16777215
370
    25
100
AcDbVertex
100
AcDb2dVertex
 10
22.73711343832614
 20
34.54707301653684
 30
0.0
  0
VERTEX
  5
1E4
330
1E2
100
AcDbEntity
  8
cuerpo
 62
     7
420
 16777215
370
    25
100
AcDbVertex
100
AcDb2dVertex
 10
23.82421331869672
 20
34.54707301653684
 30
0.0
  0
SEQEND
  5
1E5
330
1E2
100
AcDbEntity
  8
cuerpo
370
    25
  0
ENDBLK
  5
1E1
330
1DE
100
AcDbEntity
  8
0
100
AcDbBlockEnd
  0
BLOCK
  5
1E8
330
1E6
100
AcDbEntity
  8
0
100
AcDbBlockBegin
  2
block 57
 70
     0
 71
     0
 10
0.0
 20
0.0
 30
0.0
  3
block 57
  1

  0
POLYLINE
  5
1EA
330
1E6
100
AcDbEntity
  8
cuerpo
 62
     7
420
 16777215
370
    25
100
AcDb2dPolyline
 66
     1
 10
0.0
 20
0.0
 30
0.0
  0
VERTEX
  5
1EB
330
1EA
100
AcDbEntity
  8
cuerpo
 62
     7
420
 16777215
370
    25
100
AcDbVertex
100
AcDb2dVertex
 10
22.73711343832614
 20
34.54707301653684
 30
0.0
  0
VERTEX
  5
1EC
330
1EA
100
AcDbEntity
  8
cuerpo
 62
     7
420
 16777215
370
    25
100
AcDbVertex
100
AcDb2dVertex
 10
22.73711343832614
 20
35.23884818997501
 30
0.0
  0
SEQEND
  5
1ED
330
1EA
100
AcDbEntity
  8
cuerpo
370
    25
  0
ENDBLK
  5
1E9
330
1E6
100
AcDbEntity
  8
0
100
AcDbBlockEnd
  0
BLOCK
  5
1F0
330
1EE
100
AcDbEntity
  8
0
100
AcDbBlockBegin
  2
block 58
 70
     0
 71
     0
 10
0.0
 20
0.0
 30
0.0
  3
block 58
  1

  0
POLYLINE
  5
1F2
330
1EE
100
AcDbEntity
  8
cuerpo
 62
     7
420
 16777215
370
    25
100
AcDb2dPolyline
 66
     1
 10
0.0
 20
0.0
 30
0.0
  0
VERTEX
  5
1F3
330
1F2
100
AcDbEntity
  8
cuerpo
 62
     7
420
 16777215
370
    25
100
AcDbVertex
100
AcDb2dVertex
 10
22.73711343832614
 20
34.34966904523203
 30
0.0
  0
VERTEX
  5
1F4
330
1F2
100
AcDbEntity
  8
cuerpo
 62
     7
420
 16777215
370
    25
100
AcDbVertex
100
AcDb2dVertex
 10
22.73711343832614
 20
33.16352266966051
 30
0.0
  0
SEQEND
  5
1F5
330
1F2
100
AcDbEntity
  8
cuerpo
370
    25
  0
ENDBLK
  5
1F1
330
1EE
100
AcDbEntity
  8
0
100
AcDbBlockEnd
  0
BLOCK
  5
1F8
330
1F6
100
AcDbEntity
  8
0
100
AcDbBlockBegin
  2
block 59
 70
     0
 71
     0
 10
0.0
 20
0.0
 30
0.0
  3
block 59
  1

  0
SPLINE
  5
1FA
330
1F6
100
AcDbEntity
  8
cuerpo
 62
     7
420
 16777215
370
    25
100
AcDbSpline
210
0.0
220
0.0
230
1.0
 70
     8
 71
     3
 72
     8
 73
     4
 74
     0
 42
0.0000000001
 43
0.0000000001
 40
0.0
 40
0.0
 40
0.0
 40
0.0
 40
1.0
 40
1.0
 40
1.0
 40
1.0
 10
23.67590195805672
 20
34.54707301653684
 30
0.0
 10
23.3536132754116
 20
34.5381157682752
 30
0.0
 10
23.03563096212304
 20
34.47128091586135
 30
0.0
 10
22.73711343832614
 20
34.34966904523203
 30
0.0
  0
ENDBLK
  5
1F9
330
1F6
100
AcDbEntity
  8
0
100
AcDbBlockEnd
  0
BLOCK
  5
1FD
330
1FB
100
AcDbEntity
  8
0
100
AcDbBlockBegin
  2
block 60
 70
     0
 71
     0
 10
0.0
 20
0.0
 30
0.0
  3
block 60
  1

  0
SPLINE
  5
1FF
330
1FB
100
AcDbEntity
  8
cuerpo
 62
     7
420
 16777215
370
    25
100
AcDbSpline
210
0.0
220
0.0
230
1.0
 70
     8
 71
     3
 72
     8
 73
     4
 74
     0
 42
0.0000000001
 43
0.0000000001
 40
0.0
 40
0.0
 40
0.0
 40
0.0
 40
1.0
 40
1.0
 40
1.0
 40
1.0
 10
29.11140135990965
 20
34.34966904523203
 30
0.0
 10
27.67393526868916
 20
34.61287434030512
 30
0.0
 10
26.20064018442206
 20
34.61287434030512
 30
0.0
 10
24.76300183842731
 20
34.34966904523203
 30
0.0
  0
ENDBLK
  5
1FE
330
1FB
100
AcDbEntity
  8
0
100
AcDbBlockEnd
  0
BLOCK
  5
202
330
200
100
AcDbEntity
  8
0
100
AcDbBlockBegin
  2
block 61
 70
     0
 71
     0
 10
0.0
 20
0.0
 30
0.0
  3
block 61
  1

  0
POLYLINE
  5
204
330
200
100
AcDbEntity
  8
cuerpo
 62
     7
420
 16777215
370
    25
100
AcDb2dPolyline
 66
     1
 10
0.0
 20
0.0
 30
0.0
  0
VERTEX
  5
205
330
204
100
AcDbEntity
  8
cuerpo
 62
     7
420
 16777215
370
    25
100
AcDbVertex
100
AcDb2dVertex
 10
24.76300183842731
 20
34.34966904523203
 30
0.0
  0
VERTEX
  5
206
330
204
100
AcDbEntity
  8
cuerpo
 62
     7
420
 16777215
370
    25
100
AcDbVertex
100
AcDb2dVertex
 10
24.76300183842731
 20
33.16352266966051
 30
0.0
  0
SEQEND
  5
207
330
204
100
AcDbEntity
  8
cuerpo
370
    25
  0
ENDBLK
  5
203
330
200
100
AcDbEntity
  8
0
100
AcDbBlockEnd
  0
BLOCK
  5
20A
330
208
100
AcDbEntity
  8
0
100
AcDbBlockBegin
  2
block 62
 70
     0
 71
     0
 10
0.0
 20
0.0
 30
0.0
  3
block 62
  1

  0
SPLINE
  5
20C
330
208
100
AcDbEntity
  8
cuerpo
 62
     7
420
 16777215
370
    25
100
AcDbSpline
210
0.0
220
0.0
230
1.0
 70
     8
 71
     3
 72
     8
 73
     4
 74
     0
 42
0.0000000001
 43
0.0000000001
 40
0.0
 40
0.0
 40
0.0
 40
0.0
 40
1.0
 40
1.0
 40
1.0
 40
1.0
 10
24.76300183842731
 20
34.34966904523203
 30
0.0
 10
24.41832003512806
 20
34.49022894103022
 30
0.0
 10
24.04814452523797
 20
34.55740830299259
 30
0.0
 10
23.67590195805672
 20
34.54707301653684
 30
0.0
  0
ENDBLK
  5
20B
330
208
100
AcDbEntity
  8
0
100
AcDbBlockEnd
  0
BLOCK
  5
20F
330
20D
100
AcDbEntity
  8
0
100
AcDbBlockBegin
  2
block 63
 70
     0
 71
     0
 10
0.0
 20
0.0
 30
0.0
  3
block 63
  1

  0
SPLINE
  5
211
330
20D
100
AcDbEntity
  8
cuerpo
 62
     7
420
 16777215
370
    25
100
AcDbSpline
210
0.0
220
0.0
230
1.0
 70
     8
 71
     3
 72
     8
 73
     4
 74
     0
 42
0.0000000001
 43
0.0000000001
 40
0.0
 40
0.0
 40
0.0
 40
0.0
 40
1.0
 40
1.0
 40
1.0
 40
1.0
 10
23.67590195805672
 20
32.96577418880717
 30
0.0
 10
24.04814452523797
 20
32.95543890235142
 30
0.0
 10
24.41832003512806
 20
33.02296277386232
 30
0.0
 10
24.76300183842731
 20
33.16352266966051
 30
0.0
  0
ENDBLK
  5
210
330
20D
100
AcDbEntity
  8
0
100
AcDbBlockEnd
  0
BLOCK
  5
214
330
212
100
AcDbEntity
  8
0
100
AcDbBlockBegin
  2
block 64
 70
     0
 71
     0
 10
0.0
 20
0.0
 30
0.0
  3
block 64
  1

  0
SPLINE
  5
216
330
212
100
AcDbEntity
  8
cuerpo
 62
     7
420
 16777215
370
    25
100
AcDbSpline
210
0.0
220
0.0
230
1.0
 70
     8
 71
     3
 72
     8
 73
     4
 74
     0
 42
0.0000000001
 43
0.0000000001
 40
0.0
 40
0.0
 40
0.0
 40
0.0
 40
1.0
 40
1.0
 40
1.0
 40
1.0
 10
24.76300183842731
 20
33.16352266966051
 30
0.0
 10
26.20064018442206
 20
32.8999728650389
 30
0.0
 10
27.67393526868916
 20
32.8999728650389
 30
0.0
 10
29.11140135990965
 20
33.16352266966051
 30
0.0
  0
ENDBLK
  5
215
330
212
100
AcDbEntity
  8
0
100
AcDbBlockEnd
  0
BLOCK
  5
219
330
217
100
AcDbEntity
  8
0
100
AcDbBlockBegin
  2
block 65
 70
     0
 71
     0
 10
0.0
 20
0.0
 30
0.0
  3
block 65
  1

  0
SPLINE
  5
21B
330
217
100
AcDbEntity
  8
cuerpo
 62
     7
420
 16777215
370
    25
100
AcDbSpline
210
0.0
220
0.0
230
1.0
 70
     8
 71
     3
 72
     8
 73
     4
 74
     0
 42
0.0000000001
 43
0.0000000001
 40
0.0
 40
0.0
 40
0.0
 40
0.0
 40
1.0
 40
1.0
 40
1.0
 40
1.0
 10
29.11140135990965
 20
33.16352266966051
 30
0.0
 10
29.45591090843464
 20
33.02296277386232
 30
0.0
 10
29.82625867309899
 20
32.95543890235142
 30
0.0
 10
30.19832898550597
 20
32.96577418880717
 30
0.0
  0
ENDBLK
  5
21A
330
217
100
AcDbEntity
  8
0
100
AcDbBlockEnd
  0
BLOCK
  5
21E
330
21C
100
AcDbEntity
  8
0
100
AcDbBlockBegin
  2
block 66
 70
     0
 71
     0
 10
0.0
 20
0.0
 30
0.0
  3
block 66
  1

  0
SPLINE
  5
220
330
21C
100
AcDbEntity
  8
cuerpo
 62
     7
420
 16777215
370
    25
100
AcDbSpline
210
0.0
220
0.0
230
1.0
 70
     8
 71
     3
 72
     8
 73
     4
 74
     0
 42
0.0000000001
 43
0.0000000001
 40
0.0
 40
0.0
 40
0.0
 40
0.0
 40
1.0
 40
1.0
 40
1.0
 40
1.0
 10
32.05626898070121
 20
96.14262421641574
 30
0.0
 10
32.53565401747372
 20
96.68143715030881
 30
0.0
 10
32.53565401747372
 20
97.49379066573073
 30
0.0
 10
32.05626898070121
 20
98.0326035996238
 30
0.0
  0
ENDBLK
  5
21F
330
21C
100
AcDbEntity
  8
0
100
AcDbBlockEnd
  0
BLOCK
  5
223
330
221
100
AcDbEntity
  8
0
100
AcDbBlockBegin
  2
block 67
 70
     0
 71
     0
 10
0.0
 20
0.0
 30
0.0
  3
block 67
  1

  0
SPLINE
  5
225
330
221
100
AcDbEntity
  8
cuerpo
 62
     7
420
 16777215
370
    25
100
AcDbSpline
210
0.0
220
0.0
230
1.0
 70
     8
 71
     3
 72
     8
 73
     4
 74
     0
 42
0.0000000001
 43
0.0000000001
 40
0.0
 40
0.0
 40
0.0
 40
0.0
 40
1.0
 40
1.0
 40
1.0
 40
1.0
 10
22.73711343832614
 20
33.16352266966051
 30
0.0
 10
23.03563096212304
 20
33.04191079903119
 30
0.0
 10
23.3536132754116
 20
32.97473143706882
 30
0.0
 10
23.67590195805672
 20
32.96577418880717
 30
0.0
  0
ENDBLK
  5
224
330
221
100
AcDbEntity
  8
0
100
AcDbBlockEnd
  0
BLOCK
  5
228
330
226
100
AcDbEntity
  8
0
100
AcDbBlockBegin
  2
block 68
 70
     0
 71
     0
 10
0.0
 20
0.0
 30
0.0
  3
block 68
  1

  0
SPLINE
  5
22A
330
226
100
AcDbEntity
  8
cuerpo
 62
     7
420
 16777215
370
    25
100
AcDbSpline
210
0.0
220
0.0
230
1.0
 70
     8
 71
     3
 72
     8
 73
     4
 74
     0
 42
0.0000000001
 43
0.0000000001
 40
0.0
 40
0.0
 40
0.0
 40
0.0
 40
1.0
 40
1.0
 40
1.0
 40
1.0
 10
30.19832898550597
 20
32.96577418880717
 30
0.0
 10
30.52078992292536
 20
32.97473143706882
 30
0.0
 10
30.83877223621392
 20
33.04191079903119
 30
0.0
 10
31.13728976001082
 20
33.16352266966051
 30
0.0
  0
ENDBLK
  5
229
330
226
100
AcDbEntity
  8
0
100
AcDbBlockEnd
  0
BLOCK
  5
22D
330
22B
100
AcDbEntity
  8
0
100
AcDbBlockBegin
  2
block 69
 70
     0
 71
     0
 10
0.0
 20
0.0
 30
0.0
  3
block 69
  1

  0
POLYLINE
  5
22F
330
22B
100
AcDbEntity
  8
cuerpo
 62
     7
420
 16777215
370
    25
100
AcDb2dPolyline
 66
     1
 10
0.0
 20
0.0
 30
0.0
  0
VERTEX
  5
230
330
22F
100
AcDbEntity
  8
cuerpo
 62
     7
420
 16777215
370
    25
100
AcDbVertex
100
AcDb2dVertex
 10
31.13728976001082
 20
34.34966904523203
 30
0.0
  0
VERTEX
  5
231
330
22F
100
AcDbEntity
  8
cuerpo
 62
     7
420
 16777215
370
    25
100
AcDbVertex
100
AcDb2dVertex
 10
31.13728976001082
 20
33.16352266966051
 30
0.0
  0
SEQEND
  5
232
330
22F
100
AcDbEntity
  8
cuerpo
370
    25
  0
ENDBLK
  5
22E
330
22B
100
AcDbEntity
  8
0
100
AcDbBlockEnd
  0
BLOCK
  5
235
330
233
100
AcDbEntity
  8
0
100
AcDbBlockBegin
  2
block 70
 70
     0
 71
     0
 10
0.0
 20
0.0
 30
0.0
  3
block 70
  1

  0
SPLINE
  5
237
330
233
100
AcDbEntity
  8
cuerpo
 62
     7
420
 16777215
370
    25
100
AcDbSpline
210
0.0
220
0.0
230
1.0
 70
     8
 71
     3
 72
     8
 73
     4
 74
     0
 42
0.0000000001
 43
0.0000000001
 40
0.0
 40
0.0
 40
0.0
 40
0.0
 40
1.0
 40
1.0
 40
1.0
 40
1.0
 10
31.13728976001082
 20
34.34966904523203
 30
0.0
 10
30.83877223621392
 20
34.47128091586135
 30
0.0
 10
30.52078992292536
 20
34.5381157682752
 30
0.0
 10
30.19832898550597
 20
34.54707301653684
 30
0.0
  0
ENDBLK
  5
236
330
233
100
AcDbEntity
  8
0
100
AcDbBlockEnd
  0
BLOCK
  5
23A
330
238
100
AcDbEntity
  8
0
100
AcDbBlockBegin
  2
block 71
 70
     0
 71
     0
 10
0.0
 20
0.0
 30
0.0
  3
block 71
  1

  0
POLYLINE
  5
23C
330
238
100
AcDbEntity
  8
cuerpo
 62
     7
420
 16777215
370
    25
100
AcDb2dPolyline
 66
     1
 10
0.0
 20
0.0
 30
0.0
  0
VERTEX
  5
23D
330
23C
100
AcDbEntity
  8
cuerpo
 62
     7
420
 16777215
370
    25
100
AcDbVertex
100
AcDb2dVertex
 10
32.05626898070121
 20
97.71462128633524
 30
0.0
  0
VERTEX
  5
23E
330
23C
100
AcDbEntity
  8
cuerpo
 62
     7
420
 16777215
370
    25
100
AcDbVertex
100
AcDb2dVertex
 10
32.05626898070121
 20
96.42994517988558
 30
0.0
  0
SEQEND
  5
23F
330
23C
100
AcDbEntity
  8
cuerpo
370
    25
  0
ENDBLK
  5
23B
330
238
100
AcDbEntity
  8
0
100
AcDbBlockEnd
  0
BLOCK
  5
242
330
240
100
AcDbEntity
  8
0
100
AcDbBlockBegin
  2
block 72
 70
     0
 71
     0
 10
0.0
 20
0.0
 30
0.0
  3
block 72
  1

  0
POLYLINE
  5
244
330
240
100
AcDbEntity
  8
cuerpo
 62
     7
420
 16777215
370
    25
100
AcDb2dPolyline
 66
     1
 10
0.0
 20
0.0
 30
0.0
  0
VERTEX
  5
245
330
244
100
AcDbEntity
  8
cuerpo
 62
     7
420
 16777215
370
    25
100
AcDbVertex
100
AcDb2dVertex
 10
32.05626898070121
 20
98.0326035996238
 30
0.0
  0
VERTEX
  5
246
330
244
100
AcDbEntity
  8
cuerpo
 62
     7
420
 16777215
370
    25
100
AcDbVertex
100
AcDb2dVertex
 10
32.05626898070121
 20
96.14262421641574
 30
0.0
  0
SEQEND
  5
247
330
244
100
AcDbEntity
  8
cuerpo
370
    25
  0
ENDBLK
  5
243
330
240
100
AcDbEntity
  8
0
100
AcDbBlockEnd
  0
BLOCK
  5
24A
330
248
100
AcDbEntity
  8
0
100
AcDbBlockBegin
  2
block 73
 70
     0
 71
     0
 10
0.0
 20
0.0
 30
0.0
  3
block 73
  1

  0
SPLINE
  5
24C
330
248
100
AcDbEntity
  8
cuerpo
 62
     7
420
 16777215
370
    25
100
AcDbSpline
210
0.0
220
0.0
230
1.0
 70
     8
 71
     3
 72
     8
 73
     4
 74
     0
 42
0.0000000001
 43
0.0000000001
 40
0.0
 40
0.0
 40
0.0
 40
0.0
 40
1.0
 40
1.0
 40
1.0
 40
1.0
 10
30.19832898550597
 20
34.54707301653684
 30
0.0
 10
29.82625867309899
 20
34.55740830299259
 30
0.0
 10
29.45591090843464
 20
34.49022894103022
 30
0.0
 10
29.11140135990965
 20
34.34966904523203
 30
0.0
  0
ENDBLK
  5
24B
330
248
100
AcDbEntity
  8
0
100
AcDbBlockEnd
  0
BLOCK
  5
24F
330
24D
100
AcDbEntity
  8
0
100
AcDbBlockBegin
  2
block 74
 70
     0
 71
     0
 10
0.0
 20
0.0
 30
0.0
  3
block 74
  1

  0
POLYLINE
  5
251
330
24D
100
AcDbEntity
  8
cuerpo
 62
     7
420
 16777215
370
    25
100
AcDb2dPolyline
 66
     1
 10
0.0
 20
0.0
 30
0.0
  0
VERTEX
  5
252
330
251
100
AcDbEntity
  8
cuerpo
 62
     7
420
 16777215
370
    25
100
AcDbVertex
100
AcDb2dVertex
 10
29.11140135990965
 20
34.34966904523203
 30
0.0
  0
VERTEX
  5
253
330
251
100
AcDbEntity
  8
cuerpo
 62
     7
420
 16777215
370
    25
100
AcDbVertex
100
AcDb2dVertex
 10
29.11140135990965
 20
33.16352266966051
 30
0.0
  0
SEQEND
  5
254
330
251
100
AcDbEntity
  8
cuerpo
370
    25
  0
ENDBLK
  5
250
330
24D
100
AcDbEntity
  8
0
100
AcDbBlockEnd
  0
BLOCK
  5
257
330
255
100
AcDbEntity
  8
0
100
AcDbBlockBegin
  2
block 75
 70
     0
 71
     0
 10
0.0
 20
0.0
 30
0.0
  3
block 75
  1

  0
POLYLINE
  5
259
330
255
100
AcDbEntity
  8
cuerpo
 62
     7
420
 16777215
370
    25
100
AcDb2dPolyline
 66
     1
 10
0.0
 20
0.0
 30
0.0
  0
VERTEX
  5
25A
330
259
100
AcDbEntity
  8
cuerpo
 62
     7
420
 16777215
370
    25
100
AcDbVertex
100
AcDb2dVertex
 10
23.8734781841358
 20
39.55693087118716
 30
0.0
  0
VERTEX
  5
25B
330
259
100
AcDbEntity
  8
cuerpo
 62
     7
420
 16777215
370
    25
100
AcDbVertex
100
AcDb2dVertex
 10
23.8734781841358
 20
35.23884818997501
 30
0.0
  0
SEQEND
  5
25C
330
259
100
AcDbEntity
  8
cuerpo
370
    25
  0
ENDBLK
  5
258
330
255
100
AcDbEntity
  8
0
100
AcDbBlockEnd
  0
BLOCK
  5
25F
330
25D
100
AcDbEntity
  8
0
100
AcDbBlockBegin
  2
block 76
 70
     0
 71
     0
 10
0.0
 20
0.0
 30
0.0
  3
block 76
  1

  0
POLYLINE
  5
261
330
25D
100
AcDbEntity
  8
cuerpo
 62
     7
420
 16777215
370
    25
100
AcDb2dPolyline
 66
     1
 10
0.0
 20
0.0
 30
0.0
  0
VERTEX
  5
262
330
261
100
AcDbEntity
  8
cuerpo
 62
     7
420
 16777215
370
    25
100
AcDbVertex
100
AcDb2dVertex
 10
30.09962699985357
 20
39.55693087118716
 30
0.0
  0
VERTEX
  5
263
330
261
100
AcDbEntity
  8
cuerpo
 62
     7
420
 16777215
370
    25
100
AcDbVertex
100
AcDb2dVertex
 10
30.09962699985357
 20
35.23884818997501
 30
0.0
  0
SEQEND
  5
264
330
261
100
AcDbEntity
  8
cuerpo
370
    25
  0
ENDBLK
  5
260
330
25D
100
AcDbEntity
  8
0
100
AcDbBlockEnd
  0
BLOCK
  5
267
330
265
100
AcDbEntity
  8
0
100
AcDbBlockBegin
  2
block 77
 70
     0
 71
     0
 10
0.0
 20
0.0
 30
0.0
  3
block 77
  1

  0
POLYLINE
  5
269
330
265
100
AcDbEntity
  8
cuerpo
 62
     7
420
 16777215
370
    25
100
AcDb2dPolyline
 66
     1
 10
0.0
 20
0.0
 30
0.0
  0
VERTEX
  5
26A
330
269
100
AcDbEntity
  8
cuerpo
 62
     7
420
 16777215
370
    25
100
AcDbVertex
100
AcDb2dVertex
 10
24.26897514584248
 20
29.5754557217728
 30
0.0
  0
VERTEX
  5
26B
330
269
100
AcDbEntity
  8
cuerpo
 62
     7
420
 16777215
370
    25
100
AcDbVertex
100
AcDb2dVertex
 10
23.8734781841358
 20
29.97060817393096
 30
0.0
  0
SEQEND
  5
26C
330
269
100
AcDbEntity
  8
cuerpo
370
    25
  0
ENDBLK
  5
268
330
265
100
AcDbEntity
  8
0
100
AcDbBlockEnd
  0
BLOCK
  5
26F
330
26D
100
AcDbEntity
  8
0
100
AcDbBlockBegin
  2
block 78
 70
     0
 71
     0
 10
0.0
 20
0.0
 30
0.0
  3
block 78
  1

  0
SPLINE
  5
271
330
26D
100
AcDbEntity
  8
cuerpo
 62
     7
420
 16777215
370
    25
100
AcDbSpline
210
0.0
220
0.0
230
1.0
 70
     8
 71
     3
 72
     8
 73
     4
 74
     0
 42
0.0000000001
 43
0.0000000001
 40
0.0
 40
0.0
 40
0.0
 40
0.0
 40
1.0
 40
1.0
 40
1.0
 40
1.0
 10
57.65212265268767
 20
93.36656627440142
 30
0.0
 10
57.65212265268767
 20
93.39412703828341
 30
0.0
 10
57.63007404158207
 20
93.41617564938902
 30
0.0
 10
57.60268553247433
 20
93.41617564938902
 30
0.0
  0
ENDBLK
  5
270
330
26D
100
AcDbEntity
  8
0
100
AcDbBlockEnd
  0
BLOCK
  5
274
330
272
100
AcDbEntity
  8
0
100
AcDbBlockBegin
  2
block 79
 70
     0
 71
     0
 10
0.0
 20
0.0
 30
0.0
  3
block 79
  1

  0
POLYLINE
  5
276
330
272
100
AcDbEntity
  8
cuerpo
 62
     7
420
 16777215
370
    25
100
AcDb2dPolyline
 66
     1
 10
0.0
 20
0.0
 30
0.0
  0
VERTEX
  5
277
330
276
100
AcDbEntity
  8
cuerpo
 62
     7
420
 16777215
370
    25
100
AcDbVertex
100
AcDb2dVertex
 10
30.09962699985357
 20
29.97060817393096
 30
0.0
  0
VERTEX
  5
278
330
276
100
AcDbEntity
  8
cuerpo
 62
     7
420
 16777215
370
    25
100
AcDbVertex
100
AcDb2dVertex
 10
29.70257974517852
 20
29.5754557217728
 30
0.0
  0
SEQEND
  5
279
330
276
100
AcDbEntity
  8
cuerpo
370
    25
  0
ENDBLK
  5
275
330
272
100
AcDbEntity
  8
0
100
AcDbBlockEnd
  0
BLOCK
  5
27C
330
27A
100
AcDbEntity
  8
0
100
AcDbBlockBegin
  2
block 80
 70
     0
 71
     0
 10
0.0
 20
0.0
 30
0.0
  3
block 80
  1

  0
POLYLINE
  5
27E
330
27A
100
AcDbEntity
  8
cuerpo
 62
     7
420
 16777215
370
    25
100
AcDb2dPolyline
 66
     1
 10
0.0
 20
0.0
 30
0.0
  0
VERTEX
  5
27F
330
27E
100
AcDbEntity
  8
cuerpo
 62
     7
420
 16777215
370
    25
100
AcDbVertex
100
AcDb2dVertex
 10
31.13728976001082
 20
35.23884818997501
 30
0.0
  0
VERTEX
  5
280
330
27E
100
AcDbEntity
  8
cuerpo
 62
     7
420
 16777215
370
    25
100
AcDbVertex
100
AcDb2dVertex
 10
22.73711343832614
 20
35.23884818997501
 30
0.0
  0
SEQEND
  5
281
330
27E
100
AcDbEntity
  8
cuerpo
370
    25
  0
ENDBLK
  5
27D
330
27A
100
AcDbEntity
  8
0
100
AcDbBlockEnd
  0
BLOCK
  5
284
330
282
100
AcDbEntity
  8
0
100
AcDbBlockBegin
  2
block 81
 70
     0
 71
     0
 10
0.0
 20
0.0
 30
0.0
  3
block 81
  1

  0
POLYLINE
  5
286
330
282
100
AcDbEntity
  8
cuerpo
 62
     7
420
 16777215
370
    25
100
AcDb2dPolyline
 66
     1
 10
0.0
 20
0.0
 30
0.0
  0
VERTEX
  5
287
330
286
100
AcDbEntity
  8
cuerpo
 62
     7
420
 16777215
370
    25
100
AcDbVertex
100
AcDb2dVertex
 10
23.72533907827005
 20
32.96577418880717
 30
0.0
  0
VERTEX
  5
288
330
286
100
AcDbEntity
  8
cuerpo
 62
     7
420
 16777215
370
    25
100
AcDbVertex
100
AcDb2dVertex
 10
30.24793836049357
 20
32.96784124609832
 30
0.0
  0
SEQEND
  5
289
330
286
100
AcDbEntity
  8
cuerpo
370
    25
  0
ENDBLK
  5
285
330
282
100
AcDbEntity
  8
0
100
AcDbBlockEnd
  0
BLOCK
  5
28C
330
28A
100
AcDbEntity
  8
0
100
AcDbBlockBegin
  2
block 82
 70
     0
 71
     0
 10
0.0
 20
0.0
 30
0.0
  3
block 82
  1

  0
POLYLINE
  5
28E
330
28A
100
AcDbEntity
  8
cuerpo
 62
     7
420
 16777215
370
    25
100
AcDb2dPolyline
 66
     1
 10
0.0
 20
0.0
 30
0.0
  0
VERTEX
  5
28F
330
28E
100
AcDbEntity
  8
cuerpo
 62
     7
420
 16777215
370
    25
100
AcDbVertex
100
AcDb2dVertex
 10
24.26897514584248
 20
29.5754557217728
 30
0.0
  0
VERTEX
  5
290
330
28E
100
AcDbEntity
  8
cuerpo
 62
     7
420
 16777215
370
    25
100
AcDbVertex
100
AcDb2dVertex
 10
29.70257974517852
 20
29.5754557217728
 30
0.0
  0
SEQEND
  5
291
330
28E
100
AcDbEntity
  8
cuerpo
370
    25
  0
ENDBLK
  5
28D
330
28A
100
AcDbEntity
  8
0
100
AcDbBlockEnd
  0
BLOCK
  5
294
330
292
100
AcDbEntity
  8
0
100
AcDbBlockBegin
  2
block 83
 70
     0
 71
     0
 10
0.0
 20
0.0
 30
0.0
  3
block 83
  1

  0
POLYLINE
  5
296
330
292
100
AcDbEntity
  8
cuerpo
 62
     7
420
 16777215
370
    25
100
AcDb2dPolyline
 66
     1
 10
0.0
 20
0.0
 30
0.0
  0
VERTEX
  5
297
330
296
100
AcDbEntity
  8
cuerpo
 62
     7
420
 16777215
370
    25
100
AcDbVertex
100
AcDb2dVertex
 10
23.8734781841358
 20
32.96577418880717
 30
0.0
  0
VERTEX
  5
298
330
296
100
AcDbEntity
  8
cuerpo
 62
     7
420
 16777215
370
    25
100
AcDbVertex
100
AcDb2dVertex
 10
23.8734781841358
 20
29.97060817393096
 30
0.0
  0
SEQEND
  5
299
330
296
100
AcDbEntity
  8
cuerpo
370
    25
  0
ENDBLK
  5
295
330
292
100
AcDbEntity
  8
0
100
AcDbBlockEnd
  0
BLOCK
  5
29C
330
29A
100
AcDbEntity
  8
0
100
AcDbBlockBegin
  2
block 84
 70
     0
 71
     0
 10
0.0
 20
0.0
 30
0.0
  3
block 84
  1

  0
POLYLINE
  5
29E
330
29A
100
AcDbEntity
  8
cuerpo
 62
     7
420
 16777215
370
    25
100
AcDb2dPolyline
 66
     1
 10
0.0
 20
0.0
 30
0.0
  0
VERTEX
  5
29F
330
29E
100
AcDbEntity
  8
cuerpo
 62
     7
420
 16777215
370
    25
100
AcDbVertex
100
AcDb2dVertex
 10
30.09962699985357
 20
32.96784124609832
 30
0.0
  0
VERTEX
  5
2A0
330
29E
100
AcDbEntity
  8
cuerpo
 62
     7
420
 16777215
370
    25
100
AcDbVertex
100
AcDb2dVertex
 10
30.09962699985357
 20
29.97060817393096
 30
0.0
  0
SEQEND
  5
2A1
330
29E
100
AcDbEntity
  8
cuerpo
370
    25
  0
ENDBLK
  5
29D
330
29A
100
AcDbEntity
  8
0
100
AcDbBlockEnd
  0
BLOCK
  5
2A4
330
2A2
100
AcDbEntity
  8
0
100
AcDbBlockBegin
  2
block 85
 70
     0
 71
     0
 10
0.0
 20
0.0
 30
0.0
  3
block 85
  1

  0
POLYLINE
  5
2A6
330
2A2
100
AcDbEntity
  8
cuerpo
 62
     7
420
 16777215
370
    25
100
AcDb2dPolyline
 66
     1
 10
0.0
 20
0.0
 30
0.0
  0
VERTEX
  5
2A7
330
2A6
100
AcDbEntity
  8
cuerpo
 62
     7
420
 16777215
370
    25
100
AcDbVertex
100
AcDb2dVertex
 10
29.21010334556206
 20
27.88115776212694
 30
0.0
  0
VERTEX
  5
2A8
330
2A6
100
AcDbEntity
  8
cuerpo
 62
     7
420
 16777215
370
    25
100
AcDbVertex
100
AcDb2dVertex
 10
29.21010334556206
 20
29.5754557217728
 30
0.0
  0
SEQEND
  5
2A9
330
2A6
100
AcDbEntity
  8
cuerpo
370
    25
  0
ENDBLK
  5
2A5
330
2A2
100
AcDbEntity
  8
0
100
AcDbBlockEnd
  0
BLOCK
  5
2AC
330
2AA
100
AcDbEntity
  8
0
100
AcDbBlockBegin
  2
block 86
 70
     0
 71
     0
 10
0.0
 20
0.0
 30
0.0
  3
block 86
  1

  0
POLYLINE
  5
2AE
330
2AA
100
AcDbEntity
  8
cuerpo
 62
     7
420
 16777215
370
    25
100
AcDb2dPolyline
 66
     1
 10
0.0
 20
0.0
 30
0.0
  0
VERTEX
  5
2AF
330
2AE
100
AcDbEntity
  8
cuerpo
 62
     7
420
 16777215
370
    25
100
AcDbVertex
100
AcDb2dVertex
 10
27.23365206567423
 20
27.35164658604403
 30
0.0
  0
VERTEX
  5
2B0
330
2AE
100
AcDbEntity
  8
cuerpo
 62
     7
420
 16777215
370
    25
100
AcDbVertex
100
AcDb2dVertex
 10
27.23365206567423
 20
29.5754557217728
 30
0.0
  0
SEQEND
  5
2B1
330
2AE
100
AcDbEntity
  8
cuerpo
370
    25
  0
ENDBLK
  5
2AD
330
2AA
100
AcDbEntity
  8
0
100
AcDbBlockEnd
  0
BLOCK
  5
2B4
330
2B2
100
AcDbEntity
  8
0
100
AcDbBlockBegin
  2
block 87
 70
     0
 71
     0
 10
0.0
 20
0.0
 30
0.0
  3
block 87
  1

  0
POLYLINE
  5
2B6
330
2B2
100
AcDbEntity
  8
cuerpo
 62
     7
420
 16777215
370
    25
100
AcDb2dPolyline
 66
     1
 10
0.0
 20
0.0
 30
0.0
  0
VERTEX
  5
2B7
330
2B6
100
AcDbEntity
  8
cuerpo
 62
     7
420
 16777215
370
    25
100
AcDbVertex
100
AcDb2dVertex
 10
31.9575669950488
 20
39.55693087118716
 30
0.0
  0
VERTEX
  5
2B8
330
2B6
100
AcDbEntity
  8
cuerpo
 62
     7
420
 16777215
370
    25
100
AcDbVertex
100
AcDb2dVertex
 10
22.07496608606112
 20
39.55693087118716
 30
0.0
  0
SEQEND
  5
2B9
330
2B6
100
AcDbEntity
  8
cuerpo
370
    25
  0
ENDBLK
  5
2B5
330
2B2
100
AcDbEntity
  8
0
100
AcDbBlockEnd
  0
BLOCK
  5
2BC
330
2BA
100
AcDbEntity
  8
0
100
AcDbBlockBegin
  2
block 88
 70
     0
 71
     0
 10
0.0
 20
0.0
 30
0.0
  3
block 88
  1

  0
POLYLINE
  5
2BE
330
2BA
100
AcDbEntity
  8
cuerpo
 62
     7
420
 16777215
370
    25
100
AcDb2dPolyline
 66
     1
 10
0.0
 20
0.0
 30
0.0
  0
VERTEX
  5
2BF
330
2BE
100
AcDbEntity
  8
cuerpo
 62
     7
420
 16777215
370
    25
100
AcDbVertex
100
AcDb2dVertex
 10
24.23796928647523
 20
26.54928384752935
 30
0.0
  0
VERTEX
  5
2C0
330
2BE
100
AcDbEntity
  8
cuerpo
 62
     7
420
 16777215
370
    25
100
AcDbVertex
100
AcDb2dVertex
 10
31.07338323875943
 20
28.38069660748816
 30
0.0
  0
SEQEND
  5
2C1
330
2BE
100
AcDbEntity
  8
cuerpo
370
    25
  0
ENDBLK
  5
2BD
330
2BA
100
AcDbEntity
  8
0
100
AcDbBlockEnd
  0
BLOCK
  5
2C4
330
2C2
100
AcDbEntity
  8
0
100
AcDbBlockBegin
  2
block 89
 70
     0
 71
     0
 10
0.0
 20
0.0
 30
0.0
  3
block 89
  1

  0
POLYLINE
  5
2C6
330
2C2
100
AcDbEntity
  8
cuerpo
 62
     7
420
 16777215
370
    25
100
AcDb2dPolyline
 66
     1
 10
0.0
 20
0.0
 30
0.0
  0
VERTEX
  5
2C7
330
2C6
100
AcDbEntity
  8
cuerpo
 62
     7
420
 16777215
370
    25
100
AcDbVertex
100
AcDb2dVertex
 10
24.38524711846966
 20
24.69961208149871
 30
0.0
  0
VERTEX
  5
2C8
330
2C6
100
AcDbEntity
  8
cuerpo
 62
     7
420
 16777215
370
    25
100
AcDbVertex
100
AcDb2dVertex
 10
31.1502088680805
 20
26.51207681628865
 30
0.0
  0
SEQEND
  5
2C9
330
2C6
100
AcDbEntity
  8
cuerpo
370
    25
  0
ENDBLK
  5
2C5
330
2C2
100
AcDbEntity
  8
0
100
AcDbBlockEnd
  0
BLOCK
  5
2CC
330
2CA
100
AcDbEntity
  8
0
100
AcDbBlockBegin
  2
block 90
 70
     0
 71
     0
 10
0.0
 20
0.0
 30
0.0
  3
block 90
  1

  0
POLYLINE
  5
2CE
330
2CA
100
AcDbEntity
  8
cuerpo
 62
     7
420
 16777215
370
    25
100
AcDb2dPolyline
 66
     1
 10
0.0
 20
0.0
 30
0.0
  0
VERTEX
  5
2CF
330
2CE
100
AcDbEntity
  8
cuerpo
 62
     7
420
 16777215
370
    25
100
AcDbVertex
100
AcDb2dVertex
 10
27.23365206567423
 20
18.50739745631065
 30
0.0
  0
VERTEX
  5
2D0
330
2CE
100
AcDbEntity
  8
cuerpo
 62
     7
420
 16777215
370
    25
100
AcDbVertex
100
AcDb2dVertex
 10
27.23365206567423
 20
18.70514593716399
 30
0.0
  0
SEQEND
  5
2D1
330
2CE
100
AcDbEntity
  8
cuerpo
370
    25
  0
ENDBLK
  5
2CD
330
2CA
100
AcDbEntity
  8
0
100
AcDbBlockEnd
  0
BLOCK
  5
2D4
330
2D2
100
AcDbEntity
  8
0
100
AcDbBlockBegin
  2
block 91
 70
     0
 71
     0
 10
0.0
 20
0.0
 30
0.0
  3
block 91
  1

  0
SPLINE
  5
2D6
330
2D2
100
AcDbEntity
  8
cuerpo
 62
     7
420
 16777215
370
    25
100
AcDbSpline
210
0.0
220
0.0
230
1.0
 70
     8
 71
     3
 72
    11
 73
     7
 74
     0
 42
0.0000000001
 43
0.0000000001
 40
0.0
 40
0.0
 40
0.0
 40
0.0
 40
1.0
 40
1.0
 40
1.0
 40
2.0
 40
2.0
 40
2.0
 40
2.0
 10
29.11140135990965
 20
18.80367566804214
 30
0.0
 10
29.28779024875444
 20
18.81711154043461
 30
0.0
 10
29.4202541701623
 20
18.97110730862528
 30
0.0
 10
29.40699055254409
 20
19.14749619747007
 30
0.0
 10
29.40388996660736
 20
19.18883734329307
 30
0.0
 10
29.3926934062803
 20
19.22948947001902
 30
0.0
 10
29.37408989065995
 20
19.26635199171119
 30
0.0
  0
ENDBLK
  5
2D5
330
2D2
100
AcDbEntity
  8
0
100
AcDbBlockEnd
  0
BLOCK
  5
2D9
330
2D7
100
AcDbEntity
  8
0
100
AcDbBlockBegin
  2
block 92
 70
     0
 71
     0
 10
0.0
 20
0.0
 30
0.0
  3
block 92
  1

  0
SPLINE
  5
2DB
330
2D7
100
AcDbEntity
  8
cuerpo
 62
     7
420
 16777215
370
    25
100
AcDbSpline
210
0.0
220
0.0
230
1.0
 70
     8
 71
     3
 72
    11
 73
     7
 74
     0
 42
0.0000000001
 43
0.0000000001
 40
0.0
 40
0.0
 40
0.0
 40
0.0
 40
1.0
 40
1.0
 40
1.0
 40
2.0
 40
2.0
 40
2.0
 40
2.0
 10
27.0698377753506
 20
19.26635199171119
 30
0.0
 10
26.99060057918985
 20
19.10856661848675
 30
0.0
 10
27.05485160998976
 20
18.91564127131276
 30
0.0
 10
27.21332600231125
 20
18.83674858470054
 30
0.0
 10
27.25036077877769
 20
18.81780055953166
 30
0.0
 10
27.29101290550364
 20
18.80677625397886
 30
0.0
 10
27.3325263061009
 20
18.80367566804214
 30
0.0
  0
ENDBLK
  5
2DA
330
2D7
100
AcDbEntity
  8
0
100
AcDbBlockEnd
  0
BLOCK
  5
2DE
330
2DC
100
AcDbEntity
  8
0
100
AcDbBlockBegin
  2
block 93
 70
     0
 71
     0
 10
0.0
 20
0.0
 30
0.0
  3
block 93
  1

  0
POLYLINE
  5
2E0
330
2DC
100
AcDbEntity
  8
cuerpo
 62
     7
420
 16777215
370
    25
100
AcDb2dPolyline
 66
     1
 10
0.0
 20
0.0
 30
0.0
  0
VERTEX
  5
2E1
330
2E0
100
AcDbEntity
  8
cuerpo
 62
     7
420
 16777215
370
    25
100
AcDbVertex
100
AcDb2dVertex
 10
27.03607583959515
 20
22.06480305437963
 30
0.0
  0
VERTEX
  5
2E2
330
2E0
100
AcDbEntity
  8
cuerpo
 62
     7
420
 16777215
370
    25
100
AcDbVertex
100
AcDb2dVertex
 10
29.4078518264154
 20
22.06480305437963
 30
0.0
  0
SEQEND
  5
2E3
330
2E0
100
AcDbEntity
  8
cuerpo
370
    25
  0
ENDBLK
  5
2DF
330
2DC
100
AcDbEntity
  8
0
100
AcDbBlockEnd
  0
BLOCK
  5
2E6
330
2E4
100
AcDbEntity
  8
0
100
AcDbBlockBegin
  2
block 94
 70
     0
 71
     0
 10
0.0
 20
0.0
 30
0.0
  3
block 94
  1

  0
POLYLINE
  5
2E8
330
2E4
100
AcDbEntity
  8
cuerpo
 62
     7
420
 16777215
370
    25
100
AcDb2dPolyline
 66
     1
 10
0.0
 20
0.0
 30
0.0
  0
VERTEX
  5
2E9
330
2E8
100
AcDbEntity
  8
cuerpo
 62
     7
420
 16777215
370
    25
100
AcDbVertex
100
AcDb2dVertex
 10
29.21010334556206
 20
19.59432508190698
 30
0.0
  0
VERTEX
  5
2EA
330
2E8
100
AcDbEntity
  8
cuerpo
 62
     7
420
 16777215
370
    25
100
AcDbVertex
100
AcDb2dVertex
 10
29.21010334556206
 20
20.97787542878331
 30
0.0
  0
SEQEND
  5
2EB
330
2E8
100
AcDbEntity
  8
cuerpo
370
    25
  0
ENDBLK
  5
2E7
330
2E4
100
AcDbEntity
  8
0
100
AcDbBlockEnd
  0
BLOCK
  5
2EE
330
2EC
100
AcDbEntity
  8
0
100
AcDbBlockBegin
  2
block 95
 70
     0
 71
     0
 10
0.0
 20
0.0
 30
0.0
  3
block 95
  1

  0
POLYLINE
  5
2F0
330
2EC
100
AcDbEntity
  8
cuerpo
 62
     7
420
 16777215
370
    25
100
AcDb2dPolyline
 66
     1
 10
0.0
 20
0.0
 30
0.0
  0
VERTEX
  5
2F1
330
2F0
100
AcDbEntity
  8
cuerpo
 62
     7
420
 16777215
370
    25
100
AcDbVertex
100
AcDb2dVertex
 10
29.4078518264154
 20
21.74337564560582
 30
0.0
  0
VERTEX
  5
2F2
330
2F0
100
AcDbEntity
  8
cuerpo
 62
     7
420
 16777215
370
    25
100
AcDbVertex
100
AcDb2dVertex
 10
29.4078518264154
 20
22.06480305437963
 30
0.0
  0
SEQEND
  5
2F3
330
2F0
100
AcDbEntity
  8
cuerpo
370
    25
  0
ENDBLK
  5
2EF
330
2EC
100
AcDbEntity
  8
0
100
AcDbBlockEnd
  0
BLOCK
  5
2F6
330
2F4
100
AcDbEntity
  8
0
100
AcDbBlockBegin
  2
block 96
 70
     0
 71
     0
 10
0.0
 20
0.0
 30
0.0
  3
block 96
  1

  0
SPLINE
  5
2F8
330
2F4
100
AcDbEntity
  8
cuerpo
 62
     7
420
 16777215
370
    25
100
AcDbSpline
210
0.0
220
0.0
230
1.0
 70
     8
 71
     3
 72
     8
 73
     4
 74
     0
 42
0.0000000001
 43
0.0000000001
 40
0.0
 40
0.0
 40
0.0
 40
0.0
 40
1.0
 40
1.0
 40
1.0
 40
1.0
 10
29.21010334556206
 20
20.97787542878331
 30
0.0
 10
29.33998344535598
 20
21.2121419217803
 30
0.0
 10
29.4078518264154
 20
21.47569172640191
 30
0.0
 10
29.4078518264154
 20
21.74337564560582
 30
0.0
  0
ENDBLK
  5
2F7
330
2F4
100
AcDbEntity
  8
0
100
AcDbBlockEnd
  0
BLOCK
  5
2FB
330
2F9
100
AcDbEntity
  8
0
100
AcDbBlockBegin
  2
block 97
 70
     0
 71
     0
 10
0.0
 20
0.0
 30
0.0
  3
block 97
  1

  0
POLYLINE
  5
2FD
330
2F9
100
AcDbEntity
  8
cuerpo
 62
     7
420
 16777215
370
    25
100
AcDb2dPolyline
 66
     1
 10
0.0
 20
0.0
 30
0.0
  0
VERTEX
  5
2FE
330
2FD
100
AcDbEntity
  8
cuerpo
 62
     7
420
 16777215
370
    25
100
AcDbVertex
100
AcDb2dVertex
 10
29.21010334556206
 20
19.59432508190698
 30
0.0
  0
VERTEX
  5
2FF
330
2FD
100
AcDbEntity
  8
cuerpo
 62
     7
420
 16777215
370
    25
100
AcDbVertex
100
AcDb2dVertex
 10
29.37408989065995
 20
19.26635199171119
 30
0.0
  0
SEQEND
  5
300
330
2FD
100
AcDbEntity
  8
cuerpo
370
    25
  0
ENDBLK
  5
2FC
330
2F9
100
AcDbEntity
  8
0
100
AcDbBlockEnd
  0
BLOCK
  5
303
330
301
100
AcDbEntity
  8
0
100
AcDbBlockBegin
  2
block 98
 70
     0
 71
     0
 10
0.0
 20
0.0
 30
0.0
  3
block 98
  1

  0
POLYLINE
  5
305
330
301
100
AcDbEntity
  8
cuerpo
 62
     7
420
 16777215
370
    25
100
AcDb2dPolyline
 66
     1
 10
0.0
 20
0.0
 30
0.0
  0
VERTEX
  5
306
330
305
100
AcDbEntity
  8
cuerpo
 62
     7
420
 16777215
370
    25
100
AcDbVertex
100
AcDb2dVertex
 10
29.06196423969632
 20
19.59432508190698
 30
0.0
  0
VERTEX
  5
307
330
305
100
AcDbEntity
  8
cuerpo
 62
     7
420
 16777215
370
    25
100
AcDbVertex
100
AcDb2dVertex
 10
29.06196423969632
 20
20.97787542878331
 30
0.0
  0
SEQEND
  5
308
330
305
100
AcDbEntity
  8
cuerpo
370
    25
  0
ENDBLK
  5
304
330
301
100
AcDbEntity
  8
0
100
AcDbBlockEnd
  0
BLOCK
  5
30B
330
309
100
AcDbEntity
  8
0
100
AcDbBlockBegin
  2
block 99
 70
     0
 71
     0
 10
0.0
 20
0.0
 30
0.0
  3
block 99
  1

  0
POLYLINE
  5
30D
330
309
100
AcDbEntity
  8
cuerpo
 62
     7
420
 16777215
370
    25
100
AcDb2dPolyline
 66
     1
 10
0.0
 20
0.0
 30
0.0
  0
VERTEX
  5
30E
330
30D
100
AcDbEntity
  8
cuerpo
 62
     7
420
 16777215
370
    25
100
AcDbVertex
100
AcDb2dVertex
 10
28.46906330668482
 20
19.59432508190698
 30
0.0
  0
VERTEX
  5
30F
330
30D
100
AcDbEntity
  8
cuerpo
 62
     7
420
 16777215
370
    25
100
AcDbVertex
100
AcDb2dVertex
 10
28.46906330668482
 20
20.97787542878331
 30
0.0
  0
SEQEND
  5
310
330
30D
100
AcDbEntity
  8
cuerpo
370
    25
  0
ENDBLK
  5
30C
330
309
100
AcDbEntity
  8
0
100
AcDbBlockEnd
  0
BLOCK
  5
313
330
311
100
AcDbEntity
  8
0
100
AcDbBlockBegin
  2
block 100
 70
     0
 71
     0
 10
0.0
 20
0.0
 30
0.0
  3
block 100
  1

  0
POLYLINE
  5
315
330
311
100
AcDbEntity
  8
cuerpo
 62
     7
420
 16777215
370
    25
100
AcDb2dPolyline
 66
     1
 10
0.0
 20
0.0
 30
0.0
  0
VERTEX
  5
316
330
315
100
AcDbEntity
  8
cuerpo
 62
     7
420
 16777215
370
    25
100
AcDbVertex
100
AcDb2dVertex
 10
27.97486435932573
 20
19.59432508190698
 30
0.0
  0
VERTEX
  5
317
330
315
100
AcDbEntity
  8
cuerpo
 62
     7
420
 16777215
370
    25
100
AcDbVertex
100
AcDb2dVertex
 10
27.97486435932573
 20
20.97787542878331
 30
0.0
  0
SEQEND
  5
318
330
315
100
AcDbEntity
  8
cuerpo
370
    25
  0
ENDBLK
  5
314
330
311
100
AcDbEntity
  8
0
100
AcDbBlockEnd
  0
BLOCK
  5
31B
330
319
100
AcDbEntity
  8
0
100
AcDbBlockBegin
  2
block 101
 70
     0
 71
     0
 10
0.0
 20
0.0
 30
0.0
  3
block 101
  1

  0
POLYLINE
  5
31D
330
319
100
AcDbEntity
  8
cuerpo
 62
     7
420
 16777215
370
    25
100
AcDb2dPolyline
 66
     1
 10
0.0
 20
0.0
 30
0.0
  0
VERTEX
  5
31E
330
31D
100
AcDbEntity
  8
cuerpo
 62
     7
420
 16777215
370
    25
100
AcDbVertex
100
AcDb2dVertex
 10
28.71607665297723
 20
19.59432508190698
 30
0.0
  0
VERTEX
  5
31F
330
31D
100
AcDbEntity
  8
cuerpo
 62
     7
420
 16777215
370
    25
100
AcDbVertex
100
AcDb2dVertex
 10
28.71607665297723
 20
20.97787542878331
 30
0.0
  0
SEQEND
  5
320
330
31D
100
AcDbEntity
  8
cuerpo
370
    25
  0
ENDBLK
  5
31C
330
319
100
AcDbEntity
  8
0
100
AcDbBlockEnd
  0
BLOCK
  5
323
330
321
100
AcDbEntity
  8
0
100
AcDbBlockBegin
  2
block 102
 70
     0
 71
     0
 10
0.0
 20
0.0
 30
0.0
  3
block 102
  1

  0
SPLINE
  5
325
330
321
100
AcDbEntity
  8
cuerpo
 62
     7
420
 16777215
370
    25
100
AcDbSpline
210
0.0
220
0.0
230
1.0
 70
     8
 71
     3
 72
    11
 73
     7
 74
     0
 42
0.0000000001
 43
0.0000000001
 40
0.0
 40
0.0
 40
0.0
 40
0.0
 40
1.0
 40
1.0
 40
1.0
 40
2.0
 40
2.0
 40
2.0
 40
2.0
 10
27.97486435932573
 20
19.59432508190698
 30
0.0
 10
27.97486435932573
 20
19.45789930069108
 30
0.0
 10
28.08545192440225
 20
19.34731173561456
 30
0.0
 10
28.2220499603924
 20
19.34731173561456
 30
0.0
 10
28.3584757416083
 20
19.34731173561456
 30
0.0
 10
28.46906330668482
 20
19.45789930069108
 30
0.0
 10
28.46906330668482
 20
19.59432508190698
 30
0.0
  0
ENDBLK
  5
324
330
321
100
AcDbEntity
  8
0
100
AcDbBlockEnd
  0
BLOCK
  5
328
330
326
100
AcDbEntity
  8
0
100
AcDbBlockBegin
  2
block 103
 70
     0
 71
     0
 10
0.0
 20
0.0
 30
0.0
  3
block 103
  1

  0
SPLINE
  5
32A
330
326
100
AcDbEntity
  8
cuerpo
 62
     7
420
 16777215
370
    25
100
AcDbSpline
210
0.0
220
0.0
230
1.0
 70
     8
 71
     3
 72
    11
 73
     7
 74
     0
 42
0.0000000001
 43
0.0000000001
 40
0.0
 40
0.0
 40
0.0
 40
0.0
 40
1.0
 40
1.0
 40
1.0
 40
2.0
 40
2.0
 40
2.0
 40
2.0
 10
28.71607665297723
 20
19.59432508190698
 30
0.0
 10
28.71607665297723
 20
19.45789930069108
 30
0.0
 10
28.79359130139535
 20
19.34731173561456
 30
0.0
 10
28.88902044633677
 20
19.34731173561456
 30
0.0
 10
28.9844495912782
 20
19.34731173561456
 30
0.0
 10
29.06196423969632
 20
19.45789930069108
 30
0.0
 10
29.06196423969632
 20
19.59432508190698
 30
0.0
  0
ENDBLK
  5
329
330
326
100
AcDbEntity
  8
0
100
AcDbBlockEnd
  0
BLOCK
  5
32D
330
32B
100
AcDbEntity
  8
0
100
AcDbBlockBegin
  2
block 104
 70
     0
 71
     0
 10
0.0
 20
0.0
 30
0.0
  3
block 104
  1

  0
SPLINE
  5
32F
330
32B
100
AcDbEntity
  8
cuerpo
 62
     7
420
 16777215
370
    25
100
AcDbSpline
210
0.0
220
0.0
230
1.0
 70
     8
 71
     3
 72
    11
 73
     7
 74
     0
 42
0.0000000001
 43
0.0000000001
 40
0.0
 40
0.0
 40
0.0
 40
0.0
 40
1.0
 40
1.0
 40
1.0
 40
2.0
 40
2.0
 40
2.0
 40
2.0
 10
29.06196423969632
 20
20.97787542878331
 30
0.0
 10
29.06196423969632
 20
21.1143012099992
 30
0.0
 10
28.9844495912782
 20
21.22488877507572
 30
0.0
 10
28.88902044633677
 20
21.22488877507572
 30
0.0
 10
28.79359130139535
 20
21.22488877507572
 30
0.0
 10
28.71607665297723
 20
21.1143012099992
 30
0.0
 10
28.71607665297723
 20
20.97787542878331
 30
0.0
  0
ENDBLK
  5
32E
330
32B
100
AcDbEntity
  8
0
100
AcDbBlockEnd
  0
BLOCK
  5
332
330
330
100
AcDbEntity
  8
0
100
AcDbBlockBegin
  2
block 105
 70
     0
 71
     0
 10
0.0
 20
0.0
 30
0.0
  3
block 105
  1

  0
SPLINE
  5
334
330
330
100
AcDbEntity
  8
cuerpo
 62
     7
420
 16777215
370
    25
100
AcDbSpline
210
0.0
220
0.0
230
1.0
 70
     8
 71
     3
 72
    11
 73
     7
 74
     0
 42
0.0000000001
 43
0.0000000001
 40
0.0
 40
0.0
 40
0.0
 40
0.0
 40
1.0
 40
1.0
 40
1.0
 40
2.0
 40
2.0
 40
2.0
 40
2.0
 10
28.46906330668482
 20
20.97787542878331
 30
0.0
 10
28.46906330668482
 20
21.1143012099992
 30
0.0
 10
28.3584757416083
 20
21.22488877507572
 30
0.0
 10
28.2220499603924
 20
21.22488877507572
 30
0.0
 10
28.08545192440225
 20
21.22488877507572
 30
0.0
 10
27.97486435932573
 20
21.1143012099992
 30
0.0
 10
27.97486435932573
 20
20.97787542878331
 30
0.0
  0
ENDBLK
  5
333
330
330
100
AcDbEntity
  8
0
100
AcDbBlockEnd
  0
BLOCK
  5
337
330
335
100
AcDbEntity
  8
0
100
AcDbBlockBegin
  2
block 106
 70
     0
 71
     0
 10
0.0
 20
0.0
 30
0.0
  3
block 106
  1

  0
POLYLINE
  5
339
330
335
100
AcDbEntity
  8
cuerpo
 62
     7
420
 16777215
370
    25
100
AcDb2dPolyline
 66
     1
 10
0.0
 20
0.0
 30
0.0
  0
VERTEX
  5
33A
330
339
100
AcDbEntity
  8
cuerpo
 62
     7
420
 16777215
370
    25
100
AcDbVertex
100
AcDb2dVertex
 10
27.03607583959515
 20
21.74337564560582
 30
0.0
  0
VERTEX
  5
33B
330
339
100
AcDbEntity
  8
cuerpo
 62
     7
420
 16777215
370
    25
100
AcDbVertex
100
AcDb2dVertex
 10
27.03607583959515
 20
22.06480305437963
 30
0.0
  0
SEQEND
  5
33C
330
339
100
AcDbEntity
  8
cuerpo
370
    25
  0
ENDBLK
  5
338
330
335
100
AcDbEntity
  8
0
100
AcDbBlockEnd
  0
BLOCK
  5
33F
330
33D
100
AcDbEntity
  8
0
100
AcDbBlockBegin
  2
block 107
 70
     0
 71
     0
 10
0.0
 20
0.0
 30
0.0
  3
block 107
  1

  0
SPLINE
  5
341
330
33D
100
AcDbEntity
  8
cuerpo
 62
     7
420
 16777215
370
    25
100
AcDbSpline
210
0.0
220
0.0
230
1.0
 70
     8
 71
     3
 72
     8
 73
     4
 74
     0
 42
0.0000000001
 43
0.0000000001
 40
0.0
 40
0.0
 40
0.0
 40
0.0
 40
1.0
 40
1.0
 40
1.0
 40
1.0
 10
27.03607583959515
 20
21.74337564560582
 30
0.0
 10
27.03607583959515
 20
21.47569172640191
 30
0.0
 10
27.10411647542883
 20
21.2121419217803
 30
0.0
 10
27.23365206567423
 20
20.97787542878331
 30
0.0
  0
ENDBLK
  5
340
330
33D
100
AcDbEntity
  8
0
100
AcDbBlockEnd
  0
BLOCK
  5
344
330
342
100
AcDbEntity
  8
0
100
AcDbBlockBegin
  2
block 108
 70
     0
 71
     0
 10
0.0
 20
0.0
 30
0.0
  3
block 108
  1

  0
POLYLINE
  5
346
330
342
100
AcDbEntity
  8
cuerpo
 62
     7
420
 16777215
370
    25
100
AcDb2dPolyline
 66
     1
 10
0.0
 20
0.0
 30
0.0
  0
VERTEX
  5
347
330
346
100
AcDbEntity
  8
cuerpo
 62
     7
420
 16777215
370
    25
100
AcDbVertex
100
AcDb2dVertex
 10
27.23365206567423
 20
19.59432508190698
 30
0.0
  0
VERTEX
  5
348
330
346
100
AcDbEntity
  8
cuerpo
 62
     7
420
 16777215
370
    25
100
AcDbVertex
100
AcDb2dVertex
 10
27.0698377753506
 20
19.26635199171119
 30
0.0
  0
SEQEND
  5
349
330
346
100
AcDbEntity
  8
cuerpo
370
    25
  0
ENDBLK
  5
345
330
342
100
AcDbEntity
  8
0
100
AcDbBlockEnd
  0
BLOCK
  5
34C
330
34A
100
AcDbEntity
  8
0
100
AcDbBlockBegin
  2
block 109
 70
     0
 71
     0
 10
0.0
 20
0.0
 30
0.0
  3
block 109
  1

  0
POLYLINE
  5
34E
330
34A
100
AcDbEntity
  8
cuerpo
 62
     7
420
 16777215
370
    25
100
AcDb2dPolyline
 66
     1
 10
0.0
 20
0.0
 30
0.0
  0
VERTEX
  5
34F
330
34E
100
AcDbEntity
  8
cuerpo
 62
     7
420
 16777215
370
    25
100
AcDbVertex
100
AcDb2dVertex
 10
27.38196342631423
 20
19.59432508190698
 30
0.0
  0
VERTEX
  5
350
330
34E
100
AcDbEntity
  8
cuerpo
 62
     7
420
 16777215
370
    25
100
AcDbVertex
100
AcDb2dVertex
 10
27.38196342631423
 20
20.97787542878331
 30
0.0
  0
SEQEND
  5
351
330
34E
100
AcDbEntity
  8
cuerpo
370
    25
  0
ENDBLK
  5
34D
330
34A
100
AcDbEntity
  8
0
100
AcDbBlockEnd
  0
BLOCK
  5
354
330
352
100
AcDbEntity
  8
0
100
AcDbBlockBegin
  2
block 110
 70
     0
 71
     0
 10
0.0
 20
0.0
 30
0.0
  3
block 110
  1

  0
POLYLINE
  5
356
330
352
100
AcDbEntity
  8
cuerpo
 62
     7
420
 16777215
370
    25
100
AcDb2dPolyline
 66
     1
 10
0.0
 20
0.0
 30
0.0
  0
VERTEX
  5
357
330
356
100
AcDbEntity
  8
cuerpo
 62
     7
420
 16777215
370
    25
100
AcDbVertex
100
AcDb2dVertex
 10
27.72785101303332
 20
19.59432508190698
 30
0.0
  0
VERTEX
  5
358
330
356
100
AcDbEntity
  8
cuerpo
 62
     7
420
 16777215
370
    25
100
AcDbVertex
100
AcDb2dVertex
 10
27.72785101303332
 20
20.97787542878331
 30
0.0
  0
SEQEND
  5
359
330
356
100
AcDbEntity
  8
cuerpo
370
    25
  0
ENDBLK
  5
355
330
352
100
AcDbEntity
  8
0
100
AcDbBlockEnd
  0
BLOCK
  5
35C
330
35A
100
AcDbEntity
  8
0
100
AcDbBlockBegin
  2
block 111
 70
     0
 71
     0
 10
0.0
 20
0.0
 30
0.0
  3
block 111
  1

  0
SPLINE
  5
35E
330
35A
100
AcDbEntity
  8
cuerpo
 62
     7
420
 16777215
370
    25
100
AcDbSpline
210
0.0
220
0.0
230
1.0
 70
     8
 71
     3
 72
    11
 73
     7
 74
     0
 42
0.0000000001
 43
0.0000000001
 40
0.0
 40
0.0
 40
0.0
 40
0.0
 40
1.0
 40
1.0
 40
1.0
 40
2.0
 40
2.0
 40
2.0
 40
2.0
 10
27.38196342631423
 20
19.59432508190698
 30
0.0
 10
27.38196342631423
 20
19.45789930069108
 30
0.0
 10
27.45930581995809
 20
19.34731173561456
 30
0.0
 10
27.55473496489951
 20
19.34731173561456
 30
0.0
 10
27.6503363646152
 20
19.34731173561456
 30
0.0
 10
27.72785101303332
 20
19.45789930069108
 30
0.0
 10
27.72785101303332
 20
19.59432508190698
 30
0.0
  0
ENDBLK
  5
35D
330
35A
100
AcDbEntity
  8
0
100
AcDbBlockEnd
  0
BLOCK
  5
361
330
35F
100
AcDbEntity
  8
0
100
AcDbBlockBegin
  2
block 112
 70
     0
 71
     0
 10
0.0
 20
0.0
 30
0.0
  3
block 112
  1

  0
SPLINE
  5
363
330
35F
100
AcDbEntity
  8
cuerpo
 62
     7
420
 16777215
370
    25
100
AcDbSpline
210
0.0
220
0.0
230
1.0
 70
     8
 71
     3
 72
    11
 73
     7
 74
     0
 42
0.0000000001
 43
0.0000000001
 40
0.0
 40
0.0
 40
0.0
 40
0.0
 40
1.0
 40
1.0
 40
1.0
 40
2.0
 40
2.0
 40
2.0
 40
2.0
 10
27.72785101303332
 20
20.97787542878331
 30
0.0
 10
27.72785101303332
 20
21.1143012099992
 30
0.0
 10
27.6503363646152
 20
21.22488877507572
 30
0.0
 10
27.55473496489951
 20
21.22488877507572
 30
0.0
 10
27.45930581995809
 20
21.22488877507572
 30
0.0
 10
27.38196342631423
 20
21.1143012099992
 30
0.0
 10
27.38196342631423
 20
20.97787542878331
 30
0.0
  0
ENDBLK
  5
362
330
35F
100
AcDbEntity
  8
0
100
AcDbBlockEnd
  0
BLOCK
  5
366
330
364
100
AcDbEntity
  8
0
100
AcDbBlockBegin
  2
block 113
 70
     0
 71
     0
 10
0.0
 20
0.0
 30
0.0
  3
block 113
  1

  0
POLYLINE
  5
368
330
364
100
AcDbEntity
  8
cuerpo
 62
     7
420
 16777215
370
    25
100
AcDb2dPolyline
 66
     1
 10
0.0
 20
0.0
 30
0.0
  0
VERTEX
  5
369
330
368
100
AcDbEntity
  8
cuerpo
 62
     7
420
 16777215
370
    25
100
AcDbVertex
100
AcDb2dVertex
 10
27.23365206567423
 20
19.59432508190698
 30
0.0
  0
VERTEX
  5
36A
330
368
100
AcDbEntity
  8
cuerpo
 62
     7
420
 16777215
370
    25
100
AcDbVertex
100
AcDb2dVertex
 10
27.23365206567423
 20
20.97787542878331
 30
0.0
  0
SEQEND
  5
36B
330
368
100
AcDbEntity
  8
cuerpo
370
    25
  0
ENDBLK
  5
367
330
364
100
AcDbEntity
  8
0
100
AcDbBlockEnd
  0
BLOCK
  5
36E
330
36C
100
AcDbEntity
  8
0
100
AcDbBlockBegin
  2
block 114
 70
     0
 71
     0
 10
0.0
 20
0.0
 30
0.0
  3
block 114
  1

  0
POLYLINE
  5
370
330
36C
100
AcDbEntity
  8
cuerpo
 62
     7
420
 16777215
370
    25
100
AcDb2dPolyline
 66
     1
 10
0.0
 20
0.0
 30
0.0
  0
VERTEX
  5
371
330
370
100
AcDbEntity
  8
cuerpo
 62
     7
420
 16777215
370
    25
100
AcDbVertex
100
AcDb2dVertex
 10
27.3325263061009
 20
18.80367566804214
 30
0.0
  0
VERTEX
  5
372
330
370
100
AcDbEntity
  8
cuerpo
 62
     7
420
 16777215
370
    25
100
AcDbVertex
100
AcDb2dVertex
 10
29.11140135990965
 20
18.80367566804214
 30
0.0
  0
SEQEND
  5
373
330
370
100
AcDbEntity
  8
cuerpo
370
    25
  0
ENDBLK
  5
36F
330
36C
100
AcDbEntity
  8
0
100
AcDbBlockEnd
  0
BLOCK
  5
376
330
374
100
AcDbEntity
  8
0
100
AcDbBlockBegin
  2
block 115
 70
     0
 71
     0
 10
0.0
 20
0.0
 30
0.0
  3
block 115
  1

  0
POLYLINE
  5
378
330
374
100
AcDbEntity
  8
cuerpo
 62
     7
420
 16777215
370
    25
100
AcDb2dPolyline
 66
     1
 10
0.0
 20
0.0
 30
0.0
  0
VERTEX
  5
379
330
378
100
AcDbEntity
  8
cuerpo
 62
     7
420
 16777215
370
    25
100
AcDbVertex
100
AcDb2dVertex
 10
26.7396253730894
 20
18.50739745631065
 30
0.0
  0
VERTEX
  5
37A
330
378
100
AcDbEntity
  8
cuerpo
 62
     7
420
 16777215
370
    25
100
AcDbVertex
100
AcDb2dVertex
 10
29.70430229292115
 20
18.50739745631065
 30
0.0
  0
SEQEND
  5
37B
330
378
100
AcDbEntity
  8
cuerpo
370
    25
  0
ENDBLK
  5
377
330
374
100
AcDbEntity
  8
0
100
AcDbBlockEnd
  0
BLOCK
  5
37E
330
37C
100
AcDbEntity
  8
0
100
AcDbBlockBegin
  2
block 116
 70
     0
 71
     0
 10
0.0
 20
0.0
 30
0.0
  3
block 116
  1

  0
POLYLINE
  5
380
330
37C
100
AcDbEntity
  8
cuerpo
 62
     7
420
 16777215
370
    25
100
AcDb2dPolyline
 66
     1
 10
0.0
 20
0.0
 30
0.0
  0
VERTEX
  5
381
330
380
100
AcDbEntity
  8
cuerpo
 62
     7
420
 16777215
370
    25
100
AcDbVertex
100
AcDb2dVertex
 10
45.59532198295881
 20
100.8279540763555
 30
0.0
  0
VERTEX
  5
382
330
380
100
AcDbEntity
  8
cuerpo
 62
     7
420
 16777215
370
    25
100
AcDbVertex
100
AcDb2dVertex
 10
45.59532198295881
 20
99.83955618163733
 30
0.0
  0
SEQEND
  5
383
330
380
100
AcDbEntity
  8
cuerpo
370
    25
  0
ENDBLK
  5
37F
330
37C
100
AcDbEntity
  8
0
100
AcDbBlockEnd
  0
BLOCK
  5
386
330
384
100
AcDbEntity
  8
0
100
AcDbBlockBegin
  2
block 117
 70
     0
 71
     0
 10
0.0
 20
0.0
 30
0.0
  3
block 117
  1

  0
POLYLINE
  5
388
330
384
100
AcDbEntity
  8
cuerpo
 62
     7
420
 16777215
370
    25
100
AcDb2dPolyline
 66
     1
 10
0.0
 20
0.0
 30
0.0
  0
VERTEX
  5
389
330
388
100
AcDbEntity
  8
cuerpo
 62
     7
420
 16777215
370
    25
100
AcDbVertex
100
AcDb2dVertex
 10
45.59532198295881
 20
99.83955618163733
 30
0.0
  0
VERTEX
  5
38A
330
388
100
AcDbEntity
  8
cuerpo
 62
     7
420
 16777215
370
    25
100
AcDbVertex
100
AcDb2dVertex
 10
33.04449462064512
 20
99.83955618163733
 30
0.0
  0
SEQEND
  5
38B
330
388
100
AcDbEntity
  8
cuerpo
370
    25
  0
ENDBLK
  5
387
330
384
100
AcDbEntity
  8
0
100
AcDbBlockEnd
  0
BLOCK
  5
38E
330
38C
100
AcDbEntity
  8
0
100
AcDbBlockBegin
  2
block 118
 70
     0
 71
     0
 10
0.0
 20
0.0
 30
0.0
  3
block 118
  1

  0
POLYLINE
  5
390
330
38C
100
AcDbEntity
  8
cuerpo
 62
     7
420
 16777215
370
    25
100
AcDb2dPolyline
 66
     1
 10
0.0
 20
0.0
 30
0.0
  0
VERTEX
  5
391
330
390
100
AcDbEntity
  8
cuerpo
 62
     7
420
 16777215
370
    25
100
AcDbVertex
100
AcDb2dVertex
 10
29.21010334556206
 20
18.50739745631065
 30
0.0
  0
VERTEX
  5
392
330
390
100
AcDbEntity
  8
cuerpo
 62
     7
420
 16777215
370
    25
100
AcDbVertex
100
AcDb2dVertex
 10
29.21010334556206
 20
18.70514593716399
 30
0.0
  0
SEQEND
  5
393
330
390
100
AcDbEntity
  8
cuerpo
370
    25
  0
ENDBLK
  5
38F
330
38C
100
AcDbEntity
  8
0
100
AcDbBlockEnd
  0
BLOCK
  5
396
330
394
100
AcDbEntity
  8
0
100
AcDbBlockBegin
  2
block 119
 70
     0
 71
     0
 10
0.0
 20
0.0
 30
0.0
  3
block 119
  1

  0
SPLINE
  5
398
330
394
100
AcDbEntity
  8
cuerpo
 62
     7
420
 16777215
370
    25
100
AcDbSpline
210
0.0
220
0.0
230
1.0
 70
     8
 71
     3
 72
     8
 73
     4
 74
     0
 42
0.0000000001
 43
0.0000000001
 40
0.0
 40
0.0
 40
0.0
 40
0.0
 40
1.0
 40
1.0
 40
1.0
 40
1.0
 10
29.21010334556206
 20
18.70514593716399
 30
0.0
 10
29.21010334556206
 20
18.75957844583094
 30
0.0
 10
29.16600612335086
 20
18.80367566804214
 30
0.0
 10
29.11140135990965
 20
18.80367566804214
 30
0.0
  0
ENDBLK
  5
397
330
394
100
AcDbEntity
  8
0
100
AcDbBlockEnd
  0
BLOCK
  5
39B
330
399
100
AcDbEntity
  8
0
100
AcDbBlockBegin
  2
block 120
 70
     0
 71
     0
 10
0.0
 20
0.0
 30
0.0
  3
block 120
  1

  0
POLYLINE
  5
39D
330
399
100
AcDbEntity
  8
cuerpo
 62
     7
420
 16777215
370
    25
100
AcDb2dPolyline
 66
     1
 10
0.0
 20
0.0
 30
0.0
  0
VERTEX
  5
39E
330
39D
100
AcDbEntity
  8
cuerpo
 62
     7
420
 16777215
370
    25
100
AcDbVertex
100
AcDb2dVertex
 10
30.0007527594269
 20
18.33617621069374
 30
0.0
  0
VERTEX
  5
39F
330
39D
100
AcDbEntity
  8
cuerpo
 62
     7
420
 16777215
370
    25
100
AcDbVertex
100
AcDb2dVertex
 10
30.0007527594269
 20
16.70182291249121
 30
0.0
  0
SEQEND
  5
3A0
330
39D
100
AcDbEntity
  8
cuerpo
370
    25
  0
ENDBLK
  5
39C
330
399
100
AcDbEntity
  8
0
100
AcDbBlockEnd
  0
BLOCK
  5
3A3
330
3A1
100
AcDbEntity
  8
0
100
AcDbBlockBegin
  2
block 121
 70
     0
 71
     0
 10
0.0
 20
0.0
 30
0.0
  3
block 121
  1

  0
SPLINE
  5
3A5
330
3A1
100
AcDbEntity
  8
cuerpo
 62
     7
420
 16777215
370
    25
100
AcDbSpline
210
0.0
220
0.0
230
1.0
 70
     8
 71
     3
 72
     8
 73
     4
 74
     0
 42
0.0000000001
 43
0.0000000001
 40
0.0
 40
0.0
 40
0.0
 40
0.0
 40
1.0
 40
1.0
 40
1.0
 40
1.0
 10
27.3325263061009
 20
18.80367566804214
 30
0.0
 10
27.27792154265969
 20
18.80367566804214
 30
0.0
 10
27.23365206567423
 20
18.75957844583094
 30
0.0
 10
27.23365206567423
 20
18.70514593716399
 30
0.0
  0
ENDBLK
  5
3A4
330
3A1
100
AcDbEntity
  8
0
100
AcDbBlockEnd
  0
BLOCK
  5
3A8
330
3A6
100
AcDbEntity
  8
0
100
AcDbBlockBegin
  2
block 122
 70
     0
 71
     0
 10
0.0
 20
0.0
 30
0.0
  3
block 122
  1

  0
POLYLINE
  5
3AA
330
3A6
100
AcDbEntity
  8
cuerpo
 62
     7
420
 16777215
370
    25
100
AcDb2dPolyline
 66
     1
 10
0.0
 20
0.0
 30
0.0
  0
VERTEX
  5
3AB
330
3AA
100
AcDbEntity
  8
cuerpo
 62
     7
420
 16777215
370
    25
100
AcDbVertex
100
AcDb2dVertex
 10
29.70430229292115
 20
18.50739745631065
 30
0.0
  0
VERTEX
  5
3AC
330
3AA
100
AcDbEntity
  8
cuerpo
 62
     7
420
 16777215
370
    25
100
AcDbVertex
100
AcDb2dVertex
 10
30.0007527594269
 20
18.33617621069374
 30
0.0
  0
SEQEND
  5
3AD
330
3AA
100
AcDbEntity
  8
cuerpo
370
    25
  0
ENDBLK
  5
3A9
330
3A6
100
AcDbEntity
  8
0
100
AcDbBlockEnd
  0
BLOCK
  5
3B0
330
3AE
100
AcDbEntity
  8
0
100
AcDbBlockBegin
  2
block 123
 70
     0
 71
     0
 10
0.0
 20
0.0
 30
0.0
  3
block 123
  1

  0
POLYLINE
  5
3B2
330
3AE
100
AcDbEntity
  8
cuerpo
 62
     7
420
 16777215
370
    25
100
AcDb2dPolyline
 66
     1
 10
0.0
 20
0.0
 30
0.0
  0
VERTEX
  5
3B3
330
3B2
100
AcDbEntity
  8
cuerpo
 62
     7
420
 16777215
370
    25
100
AcDbVertex
100
AcDb2dVertex
 10
27.23365206567423
 20
18.33617621069374
 30
0.0
  0
VERTEX
  5
3B4
330
3B2
100
AcDbEntity
  8
cuerpo
 62
     7
420
 16777215
370
    25
100
AcDbVertex
100
AcDb2dVertex
 10
27.23365206567423
 20
16.70182291249121
 30
0.0
  0
SEQEND
  5
3B5
330
3B2
100
AcDbEntity
  8
cuerpo
370
    25
  0
ENDBLK
  5
3B1
330
3AE
100
AcDbEntity
  8
0
100
AcDbBlockEnd
  0
BLOCK
  5
3B8
330
3B6
100
AcDbEntity
  8
0
100
AcDbBlockBegin
  2
block 124
 70
     0
 71
     0
 10
0.0
 20
0.0
 30
0.0
  3
block 124
  1

  0
POLYLINE
  5
3BA
330
3B6
100
AcDbEntity
  8
cuerpo
 62
     7
420
 16777215
370
    25
100
AcDb2dPolyline
 66
     1
 10
0.0
 20
0.0
 30
0.0
  0
VERTEX
  5
3BB
330
3BA
100
AcDbEntity
  8
cuerpo
 62
     7
420
 16777215
370
    25
100
AcDbVertex
100
AcDb2dVertex
 10
29.21010334556206
 20
18.33617621069374
 30
0.0
  0
VERTEX
  5
3BC
330
3BA
100
AcDbEntity
  8
cuerpo
 62
     7
420
 16777215
370
    25
100
AcDbVertex
100
AcDb2dVertex
 10
29.21010334556206
 20
16.70182291249121
 30
0.0
  0
SEQEND
  5
3BD
330
3BA
100
AcDbEntity
  8
cuerpo
370
    25
  0
ENDBLK
  5
3B9
330
3B6
100
AcDbEntity
  8
0
100
AcDbBlockEnd
  0
BLOCK
  5
3C0
330
3BE
100
AcDbEntity
  8
0
100
AcDbBlockBegin
  2
block 125
 70
     0
 71
     0
 10
0.0
 20
0.0
 30
0.0
  3
block 125
  1

  0
SPLINE
  5
3C2
330
3BE
100
AcDbEntity
  8
cuerpo
 62
     7
420
 16777215
370
    25
100
AcDbSpline
210
0.0
220
0.0
230
1.0
 70
     8
 71
     3
 72
     8
 73
     4
 74
     0
 42
0.0000000001
 43
0.0000000001
 40
0.0
 40
0.0
 40
0.0
 40
0.0
 40
1.0
 40
1.0
 40
1.0
 40
1.0
 10
29.21010334556206
 20
18.33617621069374
 30
0.0
 10
28.57103813304822
 20
18.56424153181727
 30
0.0
 10
27.87271727818807
 20
18.56424153181727
 30
0.0
 10
27.23365206567423
 20
18.33617621069374
 30
0.0
  0
ENDBLK
  5
3C1
330
3BE
100
AcDbEntity
  8
0
100
AcDbBlockEnd
  0
BLOCK
  5
3C5
330
3C3
100
AcDbEntity
  8
0
100
AcDbBlockBegin
  2
block 126
 70
     0
 71
     0
 10
0.0
 20
0.0
 30
0.0
  3
block 126
  1

  0
SPLINE
  5
3C7
330
3C3
100
AcDbEntity
  8
cuerpo
 62
     7
420
 16777215
370
    25
100
AcDbSpline
210
0.0
220
0.0
230
1.0
 70
     8
 71
     3
 72
     8
 73
     4
 74
     0
 42
0.0000000001
 43
0.0000000001
 40
0.0
 40
0.0
 40
0.0
 40
0.0
 40
1.0
 40
1.0
 40
1.0
 40
1.0
 10
27.23365206567423
 20
18.33617621069374
 30
0.0
 10
27.09636501058702
 20
18.45330945719223
 30
0.0
 10
26.91980386696797
 20
18.51428764728115
 30
0.0
 10
26.7396253730894
 20
18.50739745631065
 30
0.0
  0
ENDBLK
  5
3C6
330
3C3
100
AcDbEntity
  8
0
100
AcDbBlockEnd
  0
BLOCK
  5
3CA
330
3C8
100
AcDbEntity
  8
0
100
AcDbBlockBegin
  2
block 127
 70
     0
 71
     0
 10
0.0
 20
0.0
 30
0.0
  3
block 127
  1

  0
SPLINE
  5
3CC
330
3C8
100
AcDbEntity
  8
cuerpo
 62
     7
420
 16777215
370
    25
100
AcDbSpline
210
0.0
220
0.0
230
1.0
 70
     8
 71
     3
 72
     8
 73
     4
 74
     0
 42
0.0000000001
 43
0.0000000001
 40
0.0
 40
0.0
 40
0.0
 40
0.0
 40
1.0
 40
1.0
 40
1.0
 40
1.0
 10
29.70430229292115
 20
18.50739745631065
 30
0.0
 10
29.52395154426832
 20
18.51428764728115
 30
0.0
 10
29.34739040064926
 20
18.45330945719223
 30
0.0
 10
29.21010334556206
 20
18.33617621069374
 30
0.0
  0
ENDBLK
  5
3CB
330
3C8
100
AcDbEntity
  8
0
100
AcDbBlockEnd
  0
BLOCK
  5
3CF
330
3CD
100
AcDbEntity
  8
0
100
AcDbBlockBegin
  2
block 128
 70
     0
 71
     0
 10
0.0
 20
0.0
 30
0.0
  3
block 128
  1

  0
POLYLINE
  5
3D1
330
3CD
100
AcDbEntity
  8
cuerpo
 62
     7
420
 16777215
370
    25
100
AcDb2dPolyline
 66
     1
 10
0.0
 20
0.0
 30
0.0
  0
VERTEX
  5
3D2
330
3D1
100
AcDbEntity
  8
cuerpo
 62
     7
420
 16777215
370
    25
100
AcDbVertex
100
AcDb2dVertex
 10
26.44317490658365
 20
18.33617621069374
 30
0.0
  0
VERTEX
  5
3D3
330
3D1
100
AcDbEntity
  8
cuerpo
 62
     7
420
 16777215
370
    25
100
AcDbVertex
100
AcDb2dVertex
 10
26.44317490658365
 20
16.70182291249121
 30
0.0
  0
SEQEND
  5
3D4
330
3D1
100
AcDbEntity
  8
cuerpo
370
    25
  0
ENDBLK
  5
3D0
330
3CD
100
AcDbEntity
  8
0
100
AcDbBlockEnd
  0
BLOCK
  5
3D7
330
3D5
100
AcDbEntity
  8
0
100
AcDbBlockBegin
  2
block 129
 70
     0
 71
     0
 10
0.0
 20
0.0
 30
0.0
  3
block 129
  1

  0
POLYLINE
  5
3D9
330
3D5
100
AcDbEntity
  8
cuerpo
 62
     7
420
 16777215
370
    25
100
AcDb2dPolyline
 66
     1
 10
0.0
 20
0.0
 30
0.0
  0
VERTEX
  5
3DA
330
3D9
100
AcDbEntity
  8
cuerpo
 62
     7
420
 16777215
370
    25
100
AcDbVertex
100
AcDb2dVertex
 10
26.7396253730894
 20
18.50739745631065
 30
0.0
  0
VERTEX
  5
3DB
330
3D9
100
AcDbEntity
  8
cuerpo
 62
     7
420
 16777215
370
    25
100
AcDbVertex
100
AcDb2dVertex
 10
26.44317490658365
 20
18.33617621069374
 30
0.0
  0
SEQEND
  5
3DC
330
3D9
100
AcDbEntity
  8
cuerpo
370
    25
  0
ENDBLK
  5
3D8
330
3D5
100
AcDbEntity
  8
0
100
AcDbBlockEnd
  0
BLOCK
  5
3DF
330
3DD
100
AcDbEntity
  8
0
100
AcDbBlockBegin
  2
block 130
 70
     0
 71
     0
 10
0.0
 20
0.0
 30
0.0
  3
block 130
  1

  0
SPLINE
  5
3E1
330
3DD
100
AcDbEntity
  8
cuerpo
 62
     7
420
 16777215
370
    25
100
AcDbSpline
210
0.0
220
0.0
230
1.0
 70
     8
 71
     3
 72
     8
 73
     4
 74
     0
 42
0.0000000001
 43
0.0000000001
 40
0.0
 40
0.0
 40
0.0
 40
0.0
 40
1.0
 40
1.0
 40
1.0
 40
1.0
 10
31.66111652854305
 20
93.41583113984049
 30
0.0
 10
31.62907714053023
 20
93.7510389305553
 30
0.0
 10
31.56258679766491
 20
94.08245711623634
 30
0.0
 10
31.46319579291545
 20
94.40422903455867
 30
0.0
  0
ENDBLK
  5
3E0
330
3DD
100
AcDbEntity
  8
0
100
AcDbBlockEnd
  0
BLOCK
  5
3E4
330
3E2
100
AcDbEntity
  8
0
100
AcDbBlockBegin
  2
block 131
 70
     0
 71
     0
 10
0.0
 20
0.0
 30
0.0
  3
block 131
  1

  0
POLYLINE
  5
3E6
330
3E2
100
AcDbEntity
  8
cuerpo
 62
     7
420
 16777215
370
    25
100
AcDb2dPolyline
 66
     1
 10
0.0
 20
0.0
 30
0.0
  0
VERTEX
  5
3E7
330
3E6
100
AcDbEntity
  8
cuerpo
 62
     7
420
 16777215
370
    25
100
AcDbVertex
100
AcDb2dVertex
 10
29.21010334556206
 20
22.06480305437963
 30
0.0
  0
VERTEX
  5
3E8
330
3E6
100
AcDbEntity
  8
cuerpo
 62
     7
420
 16777215
370
    25
100
AcDbVertex
100
AcDb2dVertex
 10
29.21010334556206
 20
25.99255641711297
 30
0.0
  0
SEQEND
  5
3E9
330
3E6
100
AcDbEntity
  8
cuerpo
370
    25
  0
ENDBLK
  5
3E5
330
3E2
100
AcDbEntity
  8
0
100
AcDbBlockEnd
  0
BLOCK
  5
3EC
330
3EA
100
AcDbEntity
  8
0
100
AcDbBlockBegin
  2
block 132
 70
     0
 71
     0
 10
0.0
 20
0.0
 30
0.0
  3
block 132
  1

  0
POLYLINE
  5
3EE
330
3EA
100
AcDbEntity
  8
cuerpo
 62
     7
420
 16777215
370
    25
100
AcDb2dPolyline
 66
     1
 10
0.0
 20
0.0
 30
0.0
  0
VERTEX
  5
3EF
330
3EE
100
AcDbEntity
  8
cuerpo
 62
     7
420
 16777215
370
    25
100
AcDbVertex
100
AcDb2dVertex
 10
27.23365206567423
 20
25.46304524103007
 30
0.0
  0
VERTEX
  5
3F0
330
3EE
100
AcDbEntity
  8
cuerpo
 62
     7
420
 16777215
370
    25
100
AcDbVertex
100
AcDb2dVertex
 10
27.23365206567423
 20
22.06480305437963
 30
0.0
  0
SEQEND
  5
3F1
330
3EE
100
AcDbEntity
  8
cuerpo
370
    25
  0
ENDBLK
  5
3ED
330
3EA
100
AcDbEntity
  8
0
100
AcDbBlockEnd
  0
BLOCK
  5
3F4
330
3F2
100
AcDbEntity
  8
0
100
AcDbBlockBegin
  2
block 133
 70
     0
 71
     0
 10
0.0
 20
0.0
 30
0.0
  3
block 133
  1

  0
SPLINE
  5
3F6
330
3F2
100
AcDbEntity
  8
cuerpo
 62
     7
420
 16777215
370
    25
100
AcDbSpline
210
0.0
220
0.0
230
1.0
 70
     8
 71
     3
 72
     8
 73
     4
 74
     0
 42
0.0000000001
 43
0.0000000001
 40
0.0
 40
0.0
 40
0.0
 40
0.0
 40
1.0
 40
1.0
 40
1.0
 40
1.0
 10
23.29005126370874
 20
95.84634600468425
 30
0.0
 10
22.77259792182421
 20
95.13252222014049
 30
0.0
 10
22.45547688240697
 20
94.29364146948215
 30
0.0
 10
22.37141655256687
 20
93.41583113984049
 30
0.0
  0
ENDBLK
  5
3F5
330
3F2
100
AcDbEntity
  8
0
100
AcDbBlockEnd
  0
BLOCK
  5
3F9
330
3F7
100
AcDbEntity
  8
0
100
AcDbBlockBegin
  2
block 134
 70
     0
 71
     0
 10
0.0
 20
0.0
 30
0.0
  3
block 134
  1

  0
POLYLINE
  5
3FB
330
3F7
100
AcDbEntity
  8
cuerpo
 62
     7
420
 16777215
370
    25
100
AcDb2dPolyline
 66
     1
 10
0.0
 20
0.0
 30
0.0
  0
VERTEX
  5
3FC
330
3FB
100
AcDbEntity
  8
cuerpo
 62
     7
420
 16777215
370
    25
100
AcDbVertex
100
AcDb2dVertex
 10
21.97626410040871
 20
100.8279540763555
 30
0.0
  0
VERTEX
  5
3FD
330
3FB
100
AcDbEntity
  8
cuerpo
 62
     7
420
 16777215
370
    25
100
AcDbVertex
100
AcDb2dVertex
 10
45.59532198295881
 20
100.8279540763555
 30
0.0
  0
SEQEND
  5
3FE
330
3FB
100
AcDbEntity
  8
cuerpo
370
    25
  0
ENDBLK
  5
3FA
330
3F7
100
AcDbEntity
  8
0
100
AcDbBlockEnd
  0
BLOCK
  5
401
330
3FF
100
AcDbEntity
  8
0
100
AcDbBlockBegin
  2
block 135
 70
     0
 71
     0
 10
0.0
 20
0.0
 30
0.0
  3
block 135
  1

  0
POLYLINE
  5
403
330
3FF
100
AcDbEntity
  8
cuerpo
 62
     7
420
 16777215
370
    25
100
AcDb2dPolyline
 66
     1
 10
0.0
 20
0.0
 30
0.0
  0
VERTEX
  5
404
330
403
100
AcDbEntity
  8
cuerpo
 62
     7
420
 16777215
370
    25
100
AcDbVertex
100
AcDb2dVertex
 10
27.01626654055496
 20
94.40422903455867
 30
0.0
  0
VERTEX
  5
405
330
403
100
AcDbEntity
  8
cuerpo
 62
     7
420
 16777215
370
    25
100
AcDbVertex
100
AcDb2dVertex
 10
32.05626898070121
 20
94.40422903455867
 30
0.0
  0
SEQEND
  5
406
330
403
100
AcDbEntity
  8
cuerpo
370
    25
  0
ENDBLK
  5
402
330
3FF
100
AcDbEntity
  8
0
100
AcDbBlockEnd
  0
BLOCK
  5
409
330
407
100
AcDbEntity
  8
0
100
AcDbBlockBegin
  2
block 136
 70
     0
 71
     0
 10
0.0
 20
0.0
 30
0.0
  3
block 136
  1

  0
POLYLINE
  5
40B
330
407
100
AcDbEntity
  8
cuerpo
 62
     7
420
 16777215
370
    25
100
AcDb2dPolyline
 66
     1
 10
0.0
 20
0.0
 30
0.0
  0
VERTEX
  5
40C
330
40B
100
AcDbEntity
  8
cuerpo
 62
     7
420
 16777215
370
    25
100
AcDbVertex
100
AcDb2dVertex
 10
27.01626654055496
 20
94.40422903455867
 30
0.0
  0
VERTEX
  5
40D
330
40B
100
AcDbEntity
  8
cuerpo
 62
     7
420
 16777215
370
    25
100
AcDbVertex
100
AcDb2dVertex
 10
21.97626410040871
 20
96.35484209830713
 30
0.0
  0
SEQEND
  5
40E
330
40B
100
AcDbEntity
  8
cuerpo
370
    25
  0
ENDBLK
  5
40A
330
407
100
AcDbEntity
  8
0
100
AcDbBlockEnd
  0
BLOCK
  5
411
330
40F
100
AcDbEntity
  8
0
100
AcDbBlockBegin
  2
block 137
 70
     0
 71
     0
 10
0.0
 20
0.0
 30
0.0
  3
block 137
  1

  0
POLYLINE
  5
413
330
40F
100
AcDbEntity
  8
cuerpo
 62
     7
420
 16777215
370
    25
100
AcDb2dPolyline
 66
     1
 10
0.0
 20
0.0
 30
0.0
  0
VERTEX
  5
414
330
413
100
AcDbEntity
  8
cuerpo
 62
     7
420
 16777215
370
    25
100
AcDbVertex
100
AcDb2dVertex
 10
21.97626410040871
 20
96.35484209830713
 30
0.0
  0
VERTEX
  5
415
330
413
100
AcDbEntity
  8
cuerpo
 62
     7
420
 16777215
370
    25
100
AcDbVertex
100
AcDb2dVertex
 10
21.97626410040871
 20
100.8279540763555
 30
0.0
  0
SEQEND
  5
416
330
413
100
AcDbEntity
  8
cuerpo
370
    25
  0
ENDBLK
  5
412
330
40F
100
AcDbEntity
  8
0
100
AcDbBlockEnd
  0
BLOCK
  5
419
330
417
100
AcDbEntity
  8
0
100
AcDbBlockBegin
  2
block 138
 70
     0
 71
     0
 10
0.0
 20
0.0
 30
0.0
  3
block 138
  1

  0
POLYLINE
  5
41B
330
417
100
AcDbEntity
  8
cuerpo
 62
     7
420
 16777215
370
    25
100
AcDb2dPolyline
 66
     1
 10
0.0
 20
0.0
 30
0.0
  0
VERTEX
  5
41C
330
41B
100
AcDbEntity
  8
cuerpo
 62
     7
420
 16777215
370
    25
100
AcDbVertex
100
AcDb2dVertex
 10
32.05626898070121
 20
96.38068031444651
 30
0.0
  0
VERTEX
  5
41D
330
41B
100
AcDbEntity
  8
cuerpo
 62
     7
420
 16777215
370
    25
100
AcDbVertex
100
AcDb2dVertex
 10
32.05626898070121
 20
94.40422903455867
 30
0.0
  0
SEQEND
  5
41E
330
41B
100
AcDbEntity
  8
cuerpo
370
    25
  0
ENDBLK
  5
41A
330
417
100
AcDbEntity
  8
0
100
AcDbBlockEnd
  0
BLOCK
  5
421
330
41F
100
AcDbEntity
  8
0
100
AcDbBlockBegin
  2
block 139
 70
     0
 71
     0
 10
0.0
 20
0.0
 30
0.0
  3
block 139
  1

  0
SPLINE
  5
423
330
41F
100
AcDbEntity
  8
cuerpo
 62
     7
420
 16777215
370
    25
100
AcDbSpline
210
0.0
220
0.0
230
1.0
 70
     8
 71
     3
 72
     8
 73
     4
 74
     0
 42
0.0000000001
 43
0.0000000001
 40
0.0
 40
0.0
 40
0.0
 40
0.0
 40
1.0
 40
1.0
 40
1.0
 40
1.0
 10
33.04449462064512
 20
99.83955618163733
 30
0.0
 10
32.49879149578155
 20
99.83955618163733
 30
0.0
 10
32.05626898070121
 20
99.39720592133126
 30
0.0
 10
32.05626898070121
 20
98.85115828691916
 30
0.0
  0
ENDBLK
  5
422
330
41F
100
AcDbEntity
  8
0
100
AcDbBlockEnd
  0
BLOCK
  5
426
330
424
100
AcDbEntity
  8
0
100
AcDbBlockBegin
  2
block 140
 70
     0
 71
     0
 10
0.0
 20
0.0
 30
0.0
  3
block 140
  1

  0
POLYLINE
  5
428
330
424
100
AcDbEntity
  8
cuerpo
 62
     7
420
 16777215
370
    25
100
AcDb2dPolyline
 66
     1
 10
0.0
 20
0.0
 30
0.0
  0
VERTEX
  5
429
330
428
100
AcDbEntity
  8
cuerpo
 62
     7
420
 16777215
370
    25
100
AcDbVertex
100
AcDb2dVertex
 10
32.05626898070121
 20
97.76423066132284
 30
0.0
  0
VERTEX
  5
42A
330
428
100
AcDbEntity
  8
cuerpo
 62
     7
420
 16777215
370
    25
100
AcDbVertex
100
AcDb2dVertex
 10
32.05626898070121
 20
100.8279540763555
 30
0.0
  0
SEQEND
  5
42B
330
428
100
AcDbEntity
  8
cuerpo
370
    25
  0
ENDBLK
  5
427
330
424
100
AcDbEntity
  8
0
100
AcDbBlockEnd
  0
BLOCK
  5
42E
330
42C
100
AcDbEntity
  8
0
100
AcDbBlockBegin
  2
block 141
 70
     0
 71
     0
 10
0.0
 20
0.0
 30
0.0
  3
block 141
  1

  0
POLYLINE
  5
430
330
42C
100
AcDbEntity
  8
cuerpo
 62
     7
420
 16777215
370
    25
100
AcDb2dPolyline
 66
     1
 10
0.0
 20
0.0
 30
0.0
  0
VERTEX
  5
431
330
430
100
AcDbEntity
  8
cuerpo
 62
     7
420
 16777215
370
    25
100
AcDbVertex
100
AcDb2dVertex
 10
31.66111652854305
 20
93.41583113984049
 30
0.0
  0
VERTEX
  5
432
330
430
100
AcDbEntity
  8
cuerpo
 62
     7
420
 16777215
370
    25
100
AcDbVertex
100
AcDb2dVertex
 10
22.37141655256687
 20
93.41583113984049
 30
0.0
  0
SEQEND
  5
433
330
430
100
AcDbEntity
  8
cuerpo
370
    25
  0
ENDBLK
  5
42F
330
42C
100
AcDbEntity
  8
0
100
AcDbBlockEnd
  0
BLOCK
  5
436
330
434
100
AcDbEntity
  8
0
100
AcDbBlockBegin
  2
block 142
 70
     0
 71
     0
 10
0.0
 20
0.0
 30
0.0
  3
block 142
  1

  0
POLYLINE
  5
438
330
434
100
AcDbEntity
  8
cuerpo
 62
     7
420
 16777215
370
    25
100
AcDb2dPolyline
 66
     1
 10
0.0
 20
0.0
 30
0.0
  0
VERTEX
  5
439
330
438
100
AcDbEntity
  8
cuerpo
 62
     7
420
 16777215
370
    25
100
AcDbVertex
100
AcDb2dVertex
 10
23.8734781841358
 20
29.97060817393096
 30
0.0
  0
VERTEX
  5
43A
330
438
100
AcDbEntity
  8
cuerpo
 62
     7
420
 16777215
370
    25
100
AcDbVertex
100
AcDb2dVertex
 10
30.09962699985357
 20
29.97060817393096
 30
0.0
  0
SEQEND
  5
43B
330
438
100
AcDbEntity
  8
cuerpo
370
    25
  0
ENDBLK
  5
437
330
434
100
AcDbEntity
  8
0
100
AcDbBlockEnd
  0
BLOCK
  5
43E
330
43C
100
AcDbEntity
  8
0
100
AcDbBlockBegin
  2
block 143
 70
     0
 71
     0
 10
0.0
 20
0.0
 30
0.0
  3
block 143
  1

  0
POLYLINE
  5
440
330
43C
100
AcDbEntity
  8
cuerpo
 62
     7
420
 16777215
370
    25
100
AcDb2dPolyline
 66
     1
 10
0.0
 20
0.0
 30
0.0
  0
VERTEX
  5
441
330
440
100
AcDbEntity
  8
cuerpo
 62
     7
420
 16777215
370
    25
100
AcDbVertex
100
AcDb2dVertex
 10
29.70430229292115
 20
16.53094617642282
 30
0.0
  0
VERTEX
  5
442
330
440
100
AcDbEntity
  8
cuerpo
 62
     7
420
 16777215
370
    25
100
AcDbVertex
100
AcDb2dVertex
 10
26.7396253730894
 20
16.53094617642282
 30
0.0
  0
SEQEND
  5
443
330
440
100
AcDbEntity
  8
cuerpo
370
    25
  0
ENDBLK
  5
43F
330
43C
100
AcDbEntity
  8
0
100
AcDbBlockEnd
  0
BLOCK
  5
446
330
444
100
AcDbEntity
  8
0
100
AcDbBlockBegin
  2
block 144
 70
     0
 71
     0
 10
0.0
 20
0.0
 30
0.0
  3
block 144
  1

  0
POLYLINE
  5
448
330
444
100
AcDbEntity
  8
cuerpo
 62
     7
420
 16777215
370
    25
100
AcDb2dPolyline
 66
     1
 10
0.0
 20
0.0
 30
0.0
  0
VERTEX
  5
449
330
448
100
AcDbEntity
  8
cuerpo
 62
     7
420
 16777215
370
    25
100
AcDbVertex
100
AcDb2dVertex
 10
29.70430229292115
 20
16.53094617642282
 30
0.0
  0
VERTEX
  5
44A
330
448
100
AcDbEntity
  8
cuerpo
 62
     7
420
 16777215
370
    25
100
AcDbVertex
100
AcDb2dVertex
 10
30.0007527594269
 20
16.70182291249121
 30
0.0
  0
SEQEND
  5
44B
330
448
100
AcDbEntity
  8
cuerpo
370
    25
  0
ENDBLK
  5
447
330
444
100
AcDbEntity
  8
0
100
AcDbBlockEnd
  0
BLOCK
  5
44E
330
44C
100
AcDbEntity
  8
0
100
AcDbBlockBegin
  2
block 145
 70
     0
 71
     0
 10
0.0
 20
0.0
 30
0.0
  3
block 145
  1

  0
SPLINE
  5
450
330
44C
100
AcDbEntity
  8
cuerpo
 62
     7
420
 16777215
370
    25
100
AcDbSpline
210
0.0
220
0.0
230
1.0
 70
     8
 71
     3
 72
     8
 73
     4
 74
     0
 42
0.0000000001
 43
0.0000000001
 40
0.0
 40
0.0
 40
0.0
 40
0.0
 40
1.0
 40
1.0
 40
1.0
 40
1.0
 10
27.23365206567423
 20
16.70182291249121
 30
0.0
 10
27.87271727818807
 20
16.47375759136767
 30
0.0
 10
28.57103813304822
 20
16.47375759136767
 30
0.0
 10
29.21010334556206
 20
16.70182291249121
 30
0.0
  0
ENDBLK
  5
44F
330
44C
100
AcDbEntity
  8
0
100
AcDbBlockEnd
  0
BLOCK
  5
453
330
451
100
AcDbEntity
  8
0
100
AcDbBlockBegin
  2
block 146
 70
     0
 71
     0
 10
0.0
 20
0.0
 30
0.0
  3
block 146
  1

  0
SPLINE
  5
455
330
451
100
AcDbEntity
  8
cuerpo
 62
     7
420
 16777215
370
    25
100
AcDbSpline
210
0.0
220
0.0
230
1.0
 70
     8
 71
     3
 72
     8
 73
     4
 74
     0
 42
0.0000000001
 43
0.0000000001
 40
0.0
 40
0.0
 40
0.0
 40
0.0
 40
1.0
 40
1.0
 40
1.0
 40
1.0
 10
26.7396253730894
 20
16.53094617642282
 30
0.0
 10
26.91980386696797
 20
16.5237114759038
 30
0.0
 10
27.09636501058702
 20
16.58468966599272
 30
0.0
 10
27.23365206567423
 20
16.70182291249121
 30
0.0
  0
ENDBLK
  5
454
330
451
100
AcDbEntity
  8
0
100
AcDbBlockEnd
  0
BLOCK
  5
458
330
456
100
AcDbEntity
  8
0
100
AcDbBlockBegin
  2
block 147
 70
     0
 71
     0
 10
0.0
 20
0.0
 30
0.0
  3
block 147
  1

  0
SPLINE
  5
45A
330
456
100
AcDbEntity
  8
cuerpo
 62
     7
420
 16777215
370
    25
100
AcDbSpline
210
0.0
220
0.0
230
1.0
 70
     8
 71
     3
 72
     8
 73
     4
 74
     0
 42
0.0000000001
 43
0.0000000001
 40
0.0
 40
0.0
 40
0.0
 40
0.0
 40
1.0
 40
1.0
 40
1.0
 40
1.0
 10
29.21010334556206
 20
16.70182291249121
 30
0.0
 10
29.34739040064926
 20
16.58468966599272
 30
0.0
 10
29.52395154426832
 20
16.5237114759038
 30
0.0
 10
29.70430229292115
 20
16.53094617642282
 30
0.0
  0
ENDBLK
  5
459
330
456
100
AcDbEntity
  8
0
100
AcDbBlockEnd
  0
BLOCK
  5
45D
330
45B
100
AcDbEntity
  8
0
100
AcDbBlockBegin
  2
block 148
 70
     0
 71
     0
 10
0.0
 20
0.0
 30
0.0
  3
block 148
  1

  0
POLYLINE
  5
45F
330
45B
100
AcDbEntity
  8
cuerpo
 62
     7
420
 16777215
370
    25
100
AcDb2dPolyline
 66
     1
 10
0.0
 20
0.0
 30
0.0
  0
VERTEX
  5
460
330
45F
100
AcDbEntity
  8
cuerpo
 62
     7
420
 16777215
370
    25
100
AcDbVertex
100
AcDb2dVertex
 10
26.7396253730894
 20
16.53094617642282
 30
0.0
  0
VERTEX
  5
461
330
45F
100
AcDbEntity
  8
cuerpo
 62
     7
420
 16777215
370
    25
100
AcDbVertex
100
AcDb2dVertex
 10
26.44317490658365
 20
16.70182291249121
 30
0.0
  0
SEQEND
  5
462
330
45F
100
AcDbEntity
  8
cuerpo
370
    25
  0
ENDBLK
  5
45E
330
45B
100
AcDbEntity
  8
0
100
AcDbBlockEnd
  0
BLOCK
  5
466
330
464
100
AcDbEntity
  8
0
100
AcDbBlockBegin
  2
block 149
 70
     0
 71
     0
 10
0.0
 20
0.0
 30
0.0
  3
block 149
  1

  0
POLYLINE
  5
468
330
464
100
AcDbEntity
  8
cotas
370
     0
100
AcDb2dPolyline
 66
     1
 10
0.0
 20
0.0
 30
0.0
  0
VERTEX
  5
469
330
468
100
AcDbEntity
  8
cotas
370
     0
100
AcDbVertex
100
AcDb2dVertex
 10
29.21044785511058
 20
25.99255641711297
 30
0.0
  0
VERTEX
  5
46A
330
468
100
AcDbEntity
  8
cotas
370
     0
100
AcDbVertex
100
AcDb2dVertex
 10
27.23382432044849
 20
25.46373426012712
 30
0.0
  0
VERTEX
  5
46B
330
468
100
AcDbEntity
  8
cotas
370
     0
100
AcDbVertex
100
AcDb2dVertex
 10
27.23382432044849
 20
22.06480305437963
 30
0.0
  0
VERTEX
  5
46C
330
468
100
AcDbEntity
  8
cotas
370
     0
100
AcDbVertex
100
AcDb2dVertex
 10
29.21044785511058
 20
22.06480305437963
 30
0.0
  0
VERTEX
  5
46D
330
468
100
AcDbEntity
  8
cotas
370
     0
100
AcDbVertex
100
AcDb2dVertex
 10
29.21044785511058
 20
25.99255641711297
 30
0.0
  0
SEQEND
  5
46E
330
468
100
AcDbEntity
  8
cotas
370
     0
  0
POLYLINE
  5
46F
330
464
100
AcDbEntity
  8
cotas
370
     0
100
AcDb2dPolyline
 66
     1
 10
0.0
 20
0.0
 30
0.0
  0
VERTEX
  5
470
330
46F
100
AcDbEntity
  8
cotas
370
     0
100
AcDbVertex
100
AcDb2dVertex
 10
29.21044785511058
 20
27.88219129077251
 30
0.0
  0
VERTEX
  5
471
330
46F
100
AcDbEntity
  8
cotas
370
     0
100
AcDbVertex
100
AcDb2dVertex
 10
29.21044785511058
 20
29.57511121222428
 30
0.0
  0
VERTEX
  5
472
330
46F
100
AcDbEntity
  8
cotas
370
     0
100
AcDbVertex
100
AcDb2dVertex
 10
27.23382432044849
 20
29.57511121222428
 30
0.0
  0
VERTEX
  5
473
330
46F
100
AcDbEntity
  8
cotas
370
     0
100
AcDbVertex
100
AcDb2dVertex
 10
27.23382432044849
 20
27.35164658604403
 30
0.0
  0
VERTEX
  5
474
330
46F
100
AcDbEntity
  8
cotas
370
     0
100
AcDbVertex
100
AcDb2dVertex
 10
29.21044785511058
 20
27.88219129077251
 30
0.0
  0
SEQEND
  5
475
330
46F
100
AcDbEntity
  8
cotas
370
     0
  0
POLYLINE
  5
476
330
464
100
AcDbEntity
  8
cotas
 62
   253
420
 11382189
370
    25
100
AcDb2dPolyline
 66
     1
 10
0.0
 20
0.0
 30
0.0
  0
VERTEX
  5
477
330
476
100
AcDbEntity
  8
cotas
 62
   253
420
 11382189
370
    25
100
AcDbVertex
100
AcDb2dVertex
 10
27.23382432044849
 20
28.51712238870405
 30
0.0
  0
VERTEX
  5
478
330
476
100
AcDbEntity
  8
cotas
 62
   253
420
 11382189
370
    25
100
AcDbVertex
100
AcDb2dVertex
 10
28.29146863442019
 20
29.57511121222428
 30
0.0
  0
SEQEND
  5
479
330
476
100
AcDbEntity
  8
cotas
370
    25
  0
POLYLINE
  5
47A
330
464
100
AcDbEntity
  8
cotas
 62
   253
420
 11382189
370
    25
100
AcDb2dPolyline
 66
     1
 10
0.0
 20
0.0
 30
0.0
  0
VERTEX
  5
47B
330
47A
100
AcDbEntity
  8
cotas
 62
   253
420
 11382189
370
    25
100
AcDbVertex
100
AcDb2dVertex
 10
27.78865694834798
 20
27.5001302014583
 30
0.0
  0
VERTEX
  5
47C
330
47A
100
AcDbEntity
  8
cotas
 62
   253
420
 11382189
370
    25
100
AcDbVertex
100
AcDb2dVertex
 10
29.21044785511058
 20
28.92261012731796
 30
0.0
  0
SEQEND
  5
47D
330
47A
100
AcDbEntity
  8
cotas
370
    25
  0
POLYLINE
  5
47E
330
464
100
AcDbEntity
  8
cotas
 62
   253
420
 11382189
370
    25
100
AcDb2dPolyline
 66
     1
 10
0.0
 20
0.0
 30
0.0
  0
VERTEX
  5
47F
330
47E
100
AcDbEntity
  8
cotas
 62
   253
420
 11382189
370
    25
100
AcDbVertex
100
AcDb2dVertex
 10
27.23382432044849
 20
25.37312824886505
 30
0.0
  0
VERTEX
  5
480
330
47E
100
AcDbEntity
  8
cotas
 62
   253
420
 11382189
370
    25
100
AcDbVertex
100
AcDb2dVertex
 10
27.35646971972339
 20
25.496462667237
 30
0.0
  0
SEQEND
  5
481
330
47E
100
AcDbEntity
  8
cotas
370
    25
  0
POLYLINE
  5
482
330
464
100
AcDbEntity
  8
cotas
 62
   253
420
 11382189
370
    25
100
AcDb2dPolyline
 66
     1
 10
0.0
 20
0.0
 30
0.0
  0
VERTEX
  5
483
330
482
100
AcDbEntity
  8
cotas
 62
   253
420
 11382189
370
    25
100
AcDbVertex
100
AcDb2dVertex
 10
27.23382432044849
 20
23.80009765029998
 30
0.0
  0
VERTEX
  5
484
330
482
100
AcDbEntity
  8
cotas
 62
   253
420
 11382189
370
    25
100
AcDbVertex
100
AcDb2dVertex
 10
29.21044785511058
 20
25.77654893018781
 30
0.0
  0
SEQEND
  5
485
330
482
100
AcDbEntity
  8
cotas
370
    25
  0
POLYLINE
  5
486
330
464
100
AcDbEntity
  8
cotas
 62
   253
420
 11382189
370
    25
100
AcDb2dPolyline
 66
     1
 10
0.0
 20
0.0
 30
0.0
  0
VERTEX
  5
487
330
486
100
AcDbEntity
  8
cotas
 62
   253
420
 11382189
370
    25
100
AcDbVertex
100
AcDb2dVertex
 10
27.23382432044849
 20
22.22878959947753
 30
0.0
  0
VERTEX
  5
488
330
486
100
AcDbEntity
  8
cotas
 62
   253
420
 11382189
370
    25
100
AcDbVertex
100
AcDb2dVertex
 10
29.21044785511058
 20
24.20524087936536
 30
0.0
  0
SEQEND
  5
489
330
486
100
AcDbEntity
  8
cotas
370
    25
  0
POLYLINE
  5
48A
330
464
100
AcDbEntity
  8
cotas
 62
   253
420
 11382189
370
    25
100
AcDb2dPolyline
 66
     1
 10
0.0
 20
0.0
 30
0.0
  0
VERTEX
  5
48B
330
48A
100
AcDbEntity
  8
cotas
 62
   253
420
 11382189
370
    25
100
AcDbVertex
100
AcDb2dVertex
 10
28.6418348452701
 20
22.06480305437963
 30
0.0
  0
VERTEX
  5
48C
330
48A
100
AcDbEntity
  8
cotas
 62
   253
420
 11382189
370
    25
100
AcDbVertex
100
AcDb2dVertex
 10
29.21044785511058
 20
22.63221028080028
 30
0.0
  0
SEQEND
  5
48D
330
48A
100
AcDbEntity
  8
cotas
370
    25
  0
POLYLINE
  5
48E
330
464
100
AcDbEntity
  8
cotas
 62
   253
420
 11382189
370
    25
100
AcDb2dPolyline
 66
     1
 10
0.0
 20
0.0
 30
0.0
  0
VERTEX
  5
48F
330
48E
100
AcDbEntity
  8
cotas
 62
   253
420
 11382189
370
    25
100
AcDbVertex
100
AcDb2dVertex
 10
28.10905082847621
 20
22.06480305437963
 30
0.0
  0
VERTEX
  5
490
330
48E
100
AcDbEntity
  8
cotas
 62
   253
420
 11382189
370
    25
100
AcDbVertex
100
AcDb2dVertex
 10
27.23382432044849
 20
22.94123534582719
 30
0.0
  0
SEQEND
  5
491
330
48E
100
AcDbEntity
  8
cotas
370
    25
  0
POLYLINE
  5
492
330
464
100
AcDbEntity
  8
cotas
 62
   253
420
 11382189
370
    25
100
AcDb2dPolyline
 66
     1
 10
0.0
 20
0.0
 30
0.0
  0
VERTEX
  5
493
330
492
100
AcDbEntity
  8
cotas
 62
   253
420
 11382189
370
    25
100
AcDbVertex
100
AcDb2dVertex
 10
29.21044785511058
 20
22.53574760721328
 30
0.0
  0
VERTEX
  5
494
330
492
100
AcDbEntity
  8
cotas
 62
   253
420
 11382189
370
    25
100
AcDbVertex
100
AcDb2dVertex
 10
27.23382432044849
 20
24.51219888710112
 30
0.0
  0
SEQEND
  5
495
330
492
100
AcDbEntity
  8
cotas
370
    25
  0
POLYLINE
  5
496
330
464
100
AcDbEntity
  8
cotas
 62
   253
420
 11382189
370
    25
100
AcDb2dPolyline
 66
     1
 10
0.0
 20
0.0
 30
0.0
  0
VERTEX
  5
497
330
496
100
AcDbEntity
  8
cotas
 62
   253
420
 11382189
370
    25
100
AcDbVertex
100
AcDb2dVertex
 10
29.21044785511058
 20
24.10877820577836
 30
0.0
  0
VERTEX
  5
498
330
496
100
AcDbEntity
  8
cotas
 62
   253
420
 11382189
370
    25
100
AcDbVertex
100
AcDb2dVertex
 10
27.72406140799954
 20
25.59533690766367
 30
0.0
  0
SEQEND
  5
499
330
496
100
AcDbEntity
  8
cotas
370
    25
  0
POLYLINE
  5
49A
330
464
100
AcDbEntity
  8
cotas
 62
   253
420
 11382189
370
    25
100
AcDb2dPolyline
 66
     1
 10
0.0
 20
0.0
 30
0.0
  0
VERTEX
  5
49B
330
49A
100
AcDbEntity
  8
cotas
 62
   253
420
 11382189
370
    25
100
AcDbVertex
100
AcDb2dVertex
 10
29.21044785511058
 20
25.68180880434344
 30
0.0
  0
VERTEX
  5
49C
330
49A
100
AcDbEntity
  8
cotas
 62
   253
420
 11382189
370
    25
100
AcDbVertex
100
AcDb2dVertex
 10
28.96429578268948
 20
25.92709960289323
 30
0.0
  0
SEQEND
  5
49D
330
49A
100
AcDbEntity
  8
cotas
370
    25
  0
POLYLINE
  5
49E
330
464
100
AcDbEntity
  8
cotas
 62
   253
420
 11382189
370
    25
100
AcDb2dPolyline
 66
     1
 10
0.0
 20
0.0
 30
0.0
  0
VERTEX
  5
49F
330
49E
100
AcDbEntity
  8
cotas
 62
   253
420
 11382189
370
    25
100
AcDbVertex
100
AcDb2dVertex
 10
27.47515325919024
 20
27.41710340026378
 30
0.0
  0
VERTEX
  5
4A0
330
49E
100
AcDbEntity
  8
cotas
 62
   253
420
 11382189
370
    25
100
AcDbVertex
100
AcDb2dVertex
 10
27.23382432044849
 20
27.65826008423127
 30
0.0
  0
SEQEND
  5
4A1
330
49E
100
AcDbEntity
  8
cotas
370
    25
  0
POLYLINE
  5
4A2
330
464
100
AcDbEntity
  8
cotas
 62
   253
420
 11382189
370
    25
100
AcDb2dPolyline
 66
     1
 10
0.0
 20
0.0
 30
0.0
  0
VERTEX
  5
4A3
330
4A2
100
AcDbEntity
  8
cotas
 62
   253
420
 11382189
370
    25
100
AcDbVertex
100
AcDb2dVertex
 10
28.71521537910592
 20
27.74921060504187
 30
0.0
  0
VERTEX
  5
4A4
330
4A2
100
AcDbEntity
  8
cotas
 62
   253
420
 11382189
370
    25
100
AcDbVertex
100
AcDb2dVertex
 10
27.23382432044849
 20
29.22956813505372
 30
0.0
  0
SEQEND
  5
4A5
330
4A2
100
AcDbEntity
  8
cotas
370
    25
  0
POLYLINE
  5
4A6
330
464
100
AcDbEntity
  8
cotas
 62
   253
420
 11382189
370
    25
100
AcDb2dPolyline
 66
     1
 10
0.0
 20
0.0
 30
0.0
  0
VERTEX
  5
4A7
330
4A6
100
AcDbEntity
  8
cotas
 62
   253
420
 11382189
370
    25
100
AcDbVertex
100
AcDb2dVertex
 10
29.21044785511058
 20
28.82614745373096
 30
0.0
  0
VERTEX
  5
4A8
330
4A6
100
AcDbEntity
  8
cotas
 62
   253
420
 11382189
370
    25
100
AcDbVertex
100
AcDb2dVertex
 10
28.46045056797169
 20
29.57511121222428
 30
0.0
  0
SEQEND
  5
4A9
330
4A6
100
AcDbEntity
  8
cotas
370
    25
  0
ENDBLK
  5
467
330
464
100
AcDbEntity
  8
0
100
AcDbBlockEnd
  0
BLOCK
  5
4AC
330
4AA
100
AcDbEntity
  8
0
100
AcDbBlockBegin
  2
block 150
 70
     0
 71
     0
 10
0.0
 20
0.0
 30
0.0
  3
block 150
  1

  0
INSERT
  5
4AF
330
4AA
100
AcDbEntity
  8
cotas
100
AcDbBlockReference
  2
block 151
 10
0.0
 20
0.0
 30
0.0
  0
INSERT
  5
4B7
330
4AA
100
AcDbEntity
  8
cotas
100
AcDbBlockReference
  2
block 152
 10
0.0
 20
0.0
 30
0.0
  0
INSERT
  5
4BF
330
4AA
100
AcDbEntity
  8
cotas
100
AcDbBlockReference
  2
block 153
 10
0.0
 20
0.0
 30
0.0
  0
INSERT
  5
4C7
330
4AA
100
AcDbEntity
  8
cotas
100
AcDbBlockReference
  2
block 154
 10
0.0
 20
0.0
 30
0.0
  0
INSERT
  5
4CF
330
4AA
100
AcDbEntity
  8
cotas
100
AcDbBlockReference
  2
block 155
 10
0.0
 20
0.0
 30
0.0
  0
INSERT
  5
4DA
330
4AA
100
AcDbEntity
  8
cotas
100
AcDbBlockReference
  2
block 156
 10
0.0
 20
0.0
 30
0.0
  0
INSERT
  5
4E5
330
4AA
100
AcDbEntity
  8
cotas
100
AcDbBlockReference
  2
block 157
 10
0.0
 20
0.0
 30
0.0
  0
INSERT
  5
4EA
330
4AA
100
AcDbEntity
  8
cotas
100
AcDbBlockReference
  2
block 158
 10
0.0
 20
0.0
 30
0.0
  0
INSERT
  5
4F2
330
4AA
100
AcDbEntity
  8
cotas
100
AcDbBlockReference
  2
block 159
 10
0.0
 20
0.0
 30
0.0
  0
INSERT
  5
4FA
330
4AA
100
AcDbEntity
  8
cotas
100
AcDbBlockReference
  2
block 160
 10
0.0
 20
0.0
 30
0.0
  0
ENDBLK
  5
4AD
330
4AA
100
AcDbEntity
  8
0
100
AcDbBlockEnd
  0
BLOCK
  5
4B0
330
4AE
100
AcDbEntity
  8
0
100
AcDbBlockBegin
  2
block 151
 70
     0
 71
     0
 10
0.0
 20
0.0
 30
0.0
  3
block 151
  1

  0
POLYLINE
  5
4B2
330
4AE
100
AcDbEntity
  8
cotas
 62
   253
420
 11382189
370
    25
100
AcDb2dPolyline
 66
     1
 10
0.0
 20
0.0
 30
0.0
  0
VERTEX
  5
4B3
330
4B2
100
AcDbEntity
  8
cotas
 62
   253
420
 11382189
370
    25
100
AcDbVertex
100
AcDb2dVertex
 10
27.01626654055496
 20
98.55488007518767
 30
0.0
  0
VERTEX
  5
4B4
330
4B2
100
AcDbEntity
  8
cotas
 62
   253
420
 11382189
370
    25
100
AcDbVertex
100
AcDb2dVertex
 10
27.01626654055496
 20
106.6722140575333
 30
0.0
  0
SEQEND
  5
4B5
330
4B2
100
AcDbEntity
  8
cotas
370
    25
  0
ENDBLK
  5
4B1
330
4AE
100
AcDbEntity
  8
0
100
AcDbBlockEnd
  0
BLOCK
  5
4B8
330
4B6
100
AcDbEntity
  8
0
100
AcDbBlockBegin
  2
block 152
 70
     0
 71
     0
 10
0.0
 20
0.0
 30
0.0
  3
block 152
  1

  0
POLYLINE
  5
4BA
330
4B6
100
AcDbEntity
  8
cotas
 62
   253
420
 11382189
370
    25
100
AcDb2dPolyline
 66
     1
 10
0.0
 20
0.0
 30
0.0
  0
VERTEX
  5
4BB
330
4BA
100
AcDbEntity
  8
cotas
 62
   253
420
 11382189
370
    25
100
AcDbVertex
100
AcDb2dVertex
 10
55.16528047666007
 20
90.95189884878981
 30
0.0
  0
VERTEX
  5
4BC
330
4BA
100
AcDbEntity
  8
cotas
 62
   253
420
 11382189
370
    25
100
AcDbVertex
100
AcDb2dVertex
 10
55.16528047666007
 20
106.6722140575333
 30
0.0
  0
SEQEND
  5
4BD
330
4BA
100
AcDbEntity
  8
cotas
370
    25
  0
ENDBLK
  5
4B9
330
4B6
100
AcDbEntity
  8
0
100
AcDbBlockEnd
  0
BLOCK
  5
4C0
330
4BE
100
AcDbEntity
  8
0
100
AcDbBlockBegin
  2
block 153
 70
     0
 71
     0
 10
0.0
 20
0.0
 30
0.0
  3
block 153
  1

  0
POLYLINE
  5
4C2
330
4BE
100
AcDbEntity
  8
cotas
 62
   253
420
 11382189
370
    25
100
AcDb2dPolyline
 66
     1
 10
0.0
 20
0.0
 30
0.0
  0
VERTEX
  5
4C3
330
4C2
100
AcDbEntity
  8
cotas
 62
   253
420
 11382189
370
    25
100
AcDbVertex
100
AcDb2dVertex
 10
28.3998168874313
 20
105.6841606723637
 30
0.0
  0
VERTEX
  5
4C4
330
4C2
100
AcDbEntity
  8
cotas
 62
   253
420
 11382189
370
    25
100
AcDbVertex
100
AcDb2dVertex
 10
35.65553248891598
 20
105.6841606723637
 30
0.0
  0
SEQEND
  5
4C5
330
4C2
100
AcDbEntity
  8
cotas
370
    25
  0
ENDBLK
  5
4C1
330
4BE
100
AcDbEntity
  8
0
100
AcDbBlockEnd
  0
BLOCK
  5
4C8
330
4C6
100
AcDbEntity
  8
0
100
AcDbBlockBegin
  2
block 154
 70
     0
 71
     0
 10
0.0
 20
0.0
 30
0.0
  3
block 154
  1

  0
POLYLINE
  5
4CA
330
4C6
100
AcDbEntity
  8
cotas
 62
   253
420
 11382189
370
    25
100
AcDb2dPolyline
 66
     1
 10
0.0
 20
0.0
 30
0.0
  0
VERTEX
  5
4CB
330
4CA
100
AcDbEntity
  8
cotas
 62
   253
420
 11382189
370
    25
100
AcDbVertex
100
AcDb2dVertex
 10
53.78173012978374
 20
105.6841606723637
 30
0.0
  0
VERTEX
  5
4CC
330
4CA
100
AcDbEntity
  8
cotas
 62
   253
420
 11382189
370
    25
100
AcDbVertex
100
AcDb2dVertex
 10
46.52618678307331
 20
105.6841606723637
 30
0.0
  0
SEQEND
  5
4CD
330
4CA
100
AcDbEntity
  8
cotas
370
    25
  0
ENDBLK
  5
4C9
330
4C6
100
AcDbEntity
  8
0
100
AcDbBlockEnd
  0
BLOCK
  5
4D0
330
4CE
100
AcDbEntity
  8
0
100
AcDbBlockBegin
  2
block 155
 70
     0
 71
     0
 10
0.0
 20
0.0
 30
0.0
  3
block 155
  1

  0
POLYLINE
  5
4D2
330
4CE
100
AcDbEntity
  8
cotas
370
     0
100
AcDb2dPolyline
 66
     1
 10
0.0
 20
0.0
 30
0.0
  0
VERTEX
  5
4D3
330
4D2
100
AcDbEntity
  8
cotas
370
     0
100
AcDbVertex
100
AcDb2dVertex
 10
28.3998168874313
 20
105.9146375603269
 30
0.0
  0
VERTEX
  5
4D4
330
4D2
100
AcDbEntity
  8
cotas
370
     0
100
AcDbVertex
100
AcDb2dVertex
 10
28.3998168874313
 20
105.4536837844005
 30
0.0
  0
VERTEX
  5
4D5
330
4D2
100
AcDbEntity
  8
cotas
370
     0
100
AcDbVertex
100
AcDb2dVertex
 10
27.01626654055496
 20
105.6841606723637
 30
0.0
  0
VERTEX
  5
4D6
330
4D2
100
AcDbEntity
  8
cotas
370
     0
100
AcDbVertex
100
AcDb2dVertex
 10
28.3998168874313
 20
105.9146375603269
 30
0.0
  0
SEQEND
  5
4D7
330
4D2
100
AcDbEntity
  8
cotas
370
     0
  0
HATCH
  5
4D8
330
4CE
100
AcDbEntity
  8
cotas
 62
   253
420
 11382189
100
AcDbHatch
 10
0.0
 20
0.0
 30
0.0
210
0.0
220
0.0
230
1.0
  2
SOLID
 70
     1
 71
     0
 91
        1
 92
        1
 93
        3
 72
     1
 10
28.3998168874313
 20
105.9146375603269
 11
28.3998168874313
 21
105.4536837844005
 72
     1
 10
28.3998168874313
 20
105.4536837844005
 11
27.01626654055496
 21
105.6841606723637
 72
     1
 10
27.01626654055496
 20
105.6841606723637
 11
28.3998168874313
 21
105.9146375603269
 97
        0
 75
     2
 76
     1
 98
        0
  0
ENDBLK
  5
4D1
330
4CE
100
AcDbEntity
  8
0
100
AcDbBlockEnd
  0
BLOCK
  5
4DB
330
4D9
100
AcDbEntity
  8
0
100
AcDbBlockBegin
  2
block 156
 70
     0
 71
     0
 10
0.0
 20
0.0
 30
0.0
  3
block 156
  1

  0
POLYLINE
  5
4DD
330
4D9
100
AcDbEntity
  8
cotas
370
     0
100
AcDb2dPolyline
 66
     1
 10
0.0
 20
0.0
 30
0.0
  0
VERTEX
  5
4DE
330
4DD
100
AcDbEntity
  8
cotas
370
     0
100
AcDbVertex
100
AcDb2dVertex
 10
53.78173012978374
 20
105.9146375603269
 30
0.0
  0
VERTEX
  5
4DF
330
4DD
100
AcDbEntity
  8
cotas
370
     0
100
AcDbVertex
100
AcDb2dVertex
 10
53.78173012978374
 20
105.4536837844005
 30
0.0
  0
VERTEX
  5
4E0
330
4DD
100
AcDbEntity
  8
cotas
370
     0
100
AcDbVertex
100
AcDb2dVertex
 10
55.16528047666007
 20
105.6841606723637
 30
0.0
  0
VERTEX
  5
4E1
330
4DD
100
AcDbEntity
  8
cotas
370
     0
100
AcDbVertex
100
AcDb2dVertex
 10
53.78173012978374
 20
105.9146375603269
 30
0.0
  0
SEQEND
  5
4E2
330
4DD
100
AcDbEntity
  8
cotas
370
     0
  0
HATCH
  5
4E3
330
4D9
100
AcDbEntity
  8
cotas
 62
   253
420
 11382189
100
AcDbHatch
 10
0.0
 20
0.0
 30
0.0
210
0.0
220
0.0
230
1.0
  2
SOLID
 70
     1
 71
     0
 91
        1
 92
        1
 93
        3
 72
     1
 10
53.78173012978374
 20
105.9146375603269
 11
53.78173012978374
 21
105.4536837844005
 72
     1
 10
53.78173012978374
 20
105.4536837844005
 11
55.16528047666007
 21
105.6841606723637
 72
     1
 10
55.16528047666007
 20
105.6841606723637
 11
53.78173012978374
 21
105.9146375603269
 97
        0
 75
     2
 76
     1
 98
        0
  0
ENDBLK
  5
4DC
330
4D9
100
AcDbEntity
  8
0
100
AcDbBlockEnd
  0
BLOCK
  5
4E6
330
4E4
100
AcDbEntity
  8
0
100
AcDbBlockBegin
  2
block 157
 70
     0
 71
     0
 10
0.0
 20
0.0
 30
0.0
  3
block 157
  1

  0
MTEXT
  5
4E8
330
4E4
100
AcDbEntity
  8
cotas
 62
   253
420
 11382189
100
AcDbMText
 10
37.49762504487907
 20
104.2210286197781
 30
0.0
 40
2.964760974778626
 41
0.0
 71
     7
 72
     1
  1
\fArial|b0|i0|c0|p34;\W1;145
 73
     1
 44
1.0
  0
ENDBLK
  5
4E7
330
4E4
100
AcDbEntity
  8
0
100
AcDbBlockEnd
  0
BLOCK
  5
4EB
330
4E9
100
AcDbEntity
  8
0
100
AcDbBlockBegin
  2
block 158
 70
     0
 71
     0
 10
0.0
 20
0.0
 30
0.0
  3
block 158
  1

  0
POLYLINE
  5
4ED
330
4E9
100
AcDbEntity
  8
cotas
 62
   253
420
 11382189
370
    25
100
AcDb2dPolyline
 66
     1
 10
0.0
 20
0.0
 30
0.0
  0
VERTEX
  5
4EE
330
4ED
100
AcDbEntity
  8
cotas
 62
   253
420
 11382189
370
    25
100
AcDbVertex
100
AcDb2dVertex
 10
27.01626654055496
 20
96.57842879529984
 30
0.0
  0
VERTEX
  5
4EF
330
4ED
100
AcDbEntity
  8
cotas
 62
   253
420
 11382189
370
    25
100
AcDbVertex
100
AcDb2dVertex
 10
27.01626654055496
 20
96.57842879529984
 30
0.0
  0
SEQEND
  5
4F0
330
4ED
100
AcDbEntity
  8
cotas
370
    25
  0
ENDBLK
  5
4EC
330
4E9
100
AcDbEntity
  8
0
100
AcDbBlockEnd
  0
BLOCK
  5
4F3
330
4F1
100
AcDbEntity
  8
0
100
AcDbBlockBegin
  2
block 159
 70
     0
 71
     0
 10
0.0
 20
0.0
 30
0.0
  3
block 159
  1

  0
POLYLINE
  5
4F5
330
4F1
100
AcDbEntity
  8
cotas
 62
   253
420
 11382189
370
    25
100
AcDb2dPolyline
 66
     1
 10
0.0
 20
0.0
 30
0.0
  0
VERTEX
  5
4F6
330
4F5
100
AcDbEntity
  8
cotas
 62
   253
420
 11382189
370
    25
100
AcDbVertex
100
AcDb2dVertex
 10
55.16528047666007
 20
88.97544756890197
 30
0.0
  0
VERTEX
  5
4F7
330
4F5
100
AcDbEntity
  8
cotas
 62
   253
420
 11382189
370
    25
100
AcDbVertex
100
AcDb2dVertex
 10
55.16528047666007
 20
88.97544756890197
 30
0.0
  0
SEQEND
  5
4F8
330
4F5
100
AcDbEntity
  8
cotas
370
    25
  0
ENDBLK
  5
4F4
330
4F1
100
AcDbEntity
  8
0
100
AcDbBlockEnd
  0
BLOCK
  5
4FB
330
4F9
100
AcDbEntity
  8
0
100
AcDbBlockBegin
  2
block 160
 70
     0
 71
     0
 10
0.0
 20
0.0
 30
0.0
  3
block 160
  1

  0
POLYLINE
  5
4FD
330
4F9
100
AcDbEntity
  8
cotas
 62
   253
420
 11382189
370
    25
100
AcDb2dPolyline
 66
     1
 10
0.0
 20
0.0
 30
0.0
  0
VERTEX
  5
4FE
330
4FD
100
AcDbEntity
  8
cotas
 62
   253
420
 11382189
370
    25
100
AcDbVertex
100
AcDb2dVertex
 10
55.16528047666007
 20
105.6841606723637
 30
0.0
  0
VERTEX
  5
4FF
330
4FD
100
AcDbEntity
  8
cotas
 62
   253
420
 11382189
370
    25
100
AcDbVertex
100
AcDb2dVertex
 10
55.16528047666007
 20
105.6841606723637
 30
0.0
  0
SEQEND
  5
500
330
4FD
100
AcDbEntity
  8
cotas
370
    25
  0
ENDBLK
  5
4FC
330
4F9
100
AcDbEntity
  8
0
100
AcDbBlockEnd
  0
BLOCK
  5
503
330
501
100
AcDbEntity
  8
0
100
AcDbBlockBegin
  2
block 161
 70
     0
 71
     0
 10
0.0
 20
0.0
 30
0.0
  3
block 161
  1

  0
POLYLINE
  5
505
330
501
100
AcDbEntity
  8
cotas
 62
   253
420
 11382189
370
    25
100
AcDb2dPolyline
 66
     1
 10
0.0
 20
0.0
 30
0.0
  0
VERTEX
  5
506
330
505
100
AcDbEntity
  8
cotas
 62
   253
420
 11382189
370
    25
100
AcDbVertex
100
AcDb2dVertex
 10
55.16528047666007
 20
88.97544756890197
 30
0.0
  0
VERTEX
  5
507
330
505
100
AcDbEntity
  8
cotas
 62
   253
420
 11382189
370
    25
100
AcDbVertex
100
AcDb2dVertex
 10
55.16528047666007
 20
87.88438582872335
 30
0.0
  0
SEQEND
  5
508
330
505
100
AcDbEntity
  8
cotas
370
    25
  0
ENDBLK
  5
504
330
501
100
AcDbEntity
  8
0
100
AcDbBlockEnd
  0
BLOCK
  5
50B
330
509
100
AcDbEntity
  8
0
100
AcDbBlockBegin
  2
block 162
 70
     0
 71
     0
 10
0.0
 20
0.0
 30
0.0
  3
block 162
  1

  0
POLYLINE
  5
50D
330
509
100
AcDbEntity
  8
cotas
 62
   253
420
 11382189
370
    25
100
AcDb2dPolyline
 66
     1
 10
0.0
 20
0.0
 30
0.0
  0
VERTEX
  5
50E
330
50D
100
AcDbEntity
  8
cotas
 62
   253
420
 11382189
370
    25
100
AcDbVertex
100
AcDb2dVertex
 10
55.16528047666007
 20
88.97544756890197
 30
0.0
  0
VERTEX
  5
50F
330
50D
100
AcDbEntity
  8
cotas
 62
   253
420
 11382189
370
    25
100
AcDbVertex
100
AcDb2dVertex
 10
55.46241996226287
 20
87.86647133220005
 30
0.0
  0
SEQEND
  5
510
330
50D
100
AcDbEntity
  8
cotas
370
    25
  0
ENDBLK
  5
50C
330
509
100
AcDbEntity
  8
0
100
AcDbBlockEnd
  0
BLOCK
  5
513
330
511
100
AcDbEntity
  8
0
100
AcDbBlockBegin
  2
block 163
 70
     0
 71
     0
 10
0.0
 20
0.0
 30
0.0
  3
block 163
  1

  0
INSERT
  5
516
330
511
100
AcDbEntity
  8
cotas
100
AcDbBlockReference
  2
block 164
 10
0.0
 20
0.0
 30
0.0
  0
INSERT
  5
51E
330
511
100
AcDbEntity
  8
cotas
100
AcDbBlockReference
  2
block 165
 10
0.0
 20
0.0
 30
0.0
  0
INSERT
  5
526
330
511
100
AcDbEntity
  8
cotas
100
AcDbBlockReference
  2
block 166
 10
0.0
 20
0.0
 30
0.0
  0
INSERT
  5
52B
330
511
100
AcDbEntity
  8
cotas
100
AcDbBlockReference
  2
block 167
 10
0.0
 20
0.0
 30
0.0
  0
INSERT
  5
536
330
511
100
AcDbEntity
  8
cotas
100
AcDbBlockReference
  2
block 168
 10
0.0
 20
0.0
 30
0.0
  0
INSERT
  5
541
330
511
100
AcDbEntity
  8
cotas
100
AcDbBlockReference
  2
block 169
 10
0.0
 20
0.0
 30
0.0
  0
INSERT
  5
546
330
511
100
AcDbEntity
  8
cotas
100
AcDbBlockReference
  2
block 170
 10
0.0
 20
0.0
 30
0.0
  0
INSERT
  5
54E
330
511
100
AcDbEntity
  8
cotas
100
AcDbBlockReference
  2
block 171
 10
0.0
 20
0.0
 30
0.0
  0
INSERT
  5
556
330
511
100
AcDbEntity
  8
cotas
100
AcDbBlockReference
  2
block 172
 10
0.0
 20
0.0
 30
0.0
  0
INSERT
  5
55E
330
511
100
AcDbEntity
  8
cotas
100
AcDbBlockReference
  2
block 173
 10
0.0
 20
0.0
 30
0.0
  0
INSERT
  5
566
330
511
100
AcDbEntity
  8
cotas
100
AcDbBlockReference
  2
block 174
 10
0.0
 20
0.0
 30
0.0
  0
ENDBLK
  5
514
330
511
100
AcDbEntity
  8
0
100
AcDbBlockEnd
  0
BLOCK
  5
517
330
515
100
AcDbEntity
  8
0
100
AcDbBlockBegin
  2
block 164
 70
     0
 71
     0
 10
0.0
 20
0.0
 30
0.0
  3
block 164
  1

  0
POLYLINE
  5
519
330
515
100
AcDbEntity
  8
cotas
 62
   253
420
 11382189
370
    25
100
AcDb2dPolyline
 66
     1
 10
0.0
 20
0.0
 30
0.0
  0
VERTEX
  5
51A
330
519
100
AcDbEntity
  8
cotas
 62
   253
420
 11382189
370
    25
100
AcDbVertex
100
AcDb2dVertex
 10
55.16528047666007
 20
85.90793454883553
 30
0.0
  0
VERTEX
  5
51B
330
519
100
AcDbEntity
  8
cotas
 62
   253
420
 11382189
370
    25
100
AcDbVertex
100
AcDb2dVertex
 10
55.16528047666007
 20
76.47560761976999
 30
0.0
  0
SEQEND
  5
51C
330
519
100
AcDbEntity
  8
cotas
370
    25
  0
ENDBLK
  5
518
330
515
100
AcDbEntity
  8
0
100
AcDbBlockEnd
  0
BLOCK
  5
51F
330
51D
100
AcDbEntity
  8
0
100
AcDbBlockBegin
  2
block 165
 70
     0
 71
     0
 10
0.0
 20
0.0
 30
0.0
  3
block 165
  1

  0
POLYLINE
  5
521
330
51D
100
AcDbEntity
  8
cotas
 62
   253
420
 11382189
370
    25
100
AcDb2dPolyline
 66
     1
 10
0.0
 20
0.0
 30
0.0
  0
VERTEX
  5
522
330
521
100
AcDbEntity
  8
cotas
 62
   253
420
 11382189
370
    25
100
AcDbVertex
100
AcDb2dVertex
 10
55.97401664182247
 20
85.9571994142746
 30
0.0
  0
VERTEX
  5
523
330
521
100
AcDbEntity
  8
cotas
 62
   253
420
 11382189
370
    25
100
AcDbVertex
100
AcDb2dVertex
 10
58.40039739208393
 20
76.9017659312954
 30
0.0
  0
SEQEND
  5
524
330
521
100
AcDbEntity
  8
cotas
370
    25
  0
ENDBLK
  5
520
330
51D
100
AcDbEntity
  8
0
100
AcDbBlockEnd
  0
BLOCK
  5
527
330
525
100
AcDbEntity
  8
0
100
AcDbBlockBegin
  2
block 166
 70
     0
 71
     0
 10
0.0
 20
0.0
 30
0.0
  3
block 166
  1

  0
SPLINE
  5
529
330
525
100
AcDbEntity
  8
cotas
 62
   253
420
 11382189
370
    25
100
AcDbSpline
210
0.0
220
0.0
230
1.0
 70
     8
 71
     3
 72
     8
 73
     4
 74
     0
 42
0.0000000001
 43
0.0000000001
 40
0.0
 40
0.0
 40
0.0
 40
0.0
 40
1.0
 40
1.0
 40
1.0
 40
1.0
 10
56.54641925669673
 20
77.54703231568269
 30
0.0
 10
56.62755125537436
 20
77.55702309258992
 30
0.0
 10
56.70833874450347
 20
77.56770288859418
 30
0.0
 10
56.78912623363258
 20
77.57907170369552
 30
0.0
  0
ENDBLK
  5
528
330
525
100
AcDbEntity
  8
0
100
AcDbBlockEnd
  0
BLOCK
  5
52C
330
52A
100
AcDbEntity
  8
0
100
AcDbBlockBegin
  2
block 167
 70
     0
 71
     0
 10
0.0
 20
0.0
 30
0.0
  3
block 167
  1

  0
POLYLINE
  5
52E
330
52A
100
AcDbEntity
  8
cotas
370
     0
100
AcDb2dPolyline
 66
     1
 10
0.0
 20
0.0
 30
0.0
  0
VERTEX
  5
52F
330
52E
100
AcDbEntity
  8
cotas
370
     0
100
AcDbVertex
100
AcDb2dVertex
 10
56.56019963863773
 20
77.31724444681653
 30
0.0
  0
VERTEX
  5
530
330
52E
100
AcDbEntity
  8
cotas
370
     0
100
AcDbVertex
100
AcDb2dVertex
 10
56.53246661998147
 20
77.7775092036459
 30
0.0
  0
VERTEX
  5
531
330
52E
100
AcDbEntity
  8
cotas
370
     0
100
AcDbVertex
100
AcDb2dVertex
 10
55.16528047666007
 20
77.46400551448816
 30
0.0
  0
VERTEX
  5
532
330
52E
100
AcDbEntity
  8
cotas
370
     0
100
AcDbVertex
100
AcDb2dVertex
 10
56.56019963863773
 20
77.31724444681653
 30
0.0
  0
SEQEND
  5
533
330
52E
100
AcDbEntity
  8
cotas
370
     0
  0
HATCH
  5
534
330
52A
100
AcDbEntity
  8
cotas
 62
   253
420
 11382189
100
AcDbHatch
 10
0.0
 20
0.0
 30
0.0
210
0.0
220
0.0
230
1.0
  2
SOLID
 70
     1
 71
     0
 91
        1
 92
        1
 93
        3
 72
     1
 10
56.56019963863773
 20
77.31724444681653
 11
56.53246661998147
 21
77.7775092036459
 72
     1
 10
56.53246661998147
 20
77.7775092036459
 11
55.16528047666007
 21
77.46400551448816
 72
     1
 10
55.16528047666007
 20
77.46400551448816
 11
56.56019963863773
 21
77.31724444681653
 97
        0
 75
     2
 76
     1
 98
        0
  0
ENDBLK
  5
52D
330
52A
100
AcDbEntity
  8
0
100
AcDbBlockEnd
  0
BLOCK
  5
537
330
535
100
AcDbEntity
  8
0
100
AcDbBlockBegin
  2
block 168
 70
     0
 71
     0
 10
0.0
 20
0.0
 30
0.0
  3
block 168
  1

  0
POLYLINE
  5
539
330
535
100
AcDbEntity
  8
cotas
370
     0
100
AcDb2dPolyline
 66
     1
 10
0.0
 20
0.0
 30
0.0
  0
VERTEX
  5
53A
330
539
100
AcDbEntity
  8
cotas
370
     0
100
AcDbVertex
100
AcDb2dVertex
 10
56.74296195413024
 20
77.8050699675279
 30
0.0
  0
VERTEX
  5
53B
330
539
100
AcDbEntity
  8
cotas
370
     0
100
AcDbVertex
100
AcDb2dVertex
 10
56.83529051313493
 20
77.35341794941165
 30
0.0
  0
VERTEX
  5
53C
330
539
100
AcDbEntity
  8
cotas
370
     0
100
AcDbVertex
100
AcDb2dVertex
 10
58.14459905230413
 20
77.8560573807096
 30
0.0
  0
VERTEX
  5
53D
330
539
100
AcDbEntity
  8
cotas
370
     0
100
AcDbVertex
100
AcDb2dVertex
 10
56.74296195413024
 20
77.8050699675279
 30
0.0
  0
SEQEND
  5
53E
330
539
100
AcDbEntity
  8
cotas
370
     0
  0
HATCH
  5
53F
330
535
100
AcDbEntity
  8
cotas
 62
   253
420
 11382189
100
AcDbHatch
 10
0.0
 20
0.0
 30
0.0
210
0.0
220
0.0
230
1.0
  2
SOLID
 70
     1
 71
     0
 91
        1
 92
        1
 93
        3
 72
     1
 10
56.74296195413024
 20
77.8050699675279
 11
56.83529051313493
 21
77.35341794941165
 72
     1
 10
56.83529051313493
 20
77.35341794941165
 11
58.14459905230413
 21
77.8560573807096
 72
     1
 10
58.14459905230413
 20
77.8560573807096
 11
56.74296195413024
 21
77.8050699675279
 97
        0
 75
     2
 76
     1
 98
        0
  0
ENDBLK
  5
538
330
535
100
AcDbEntity
  8
0
100
AcDbBlockEnd
  0
BLOCK
  5
542
330
540
100
AcDbEntity
  8
0
100
AcDbBlockBegin
  2
block 169
 70
     0
 71
     0
 10
0.0
 20
0.0
 30
0.0
  3
block 169
  1

  0
MTEXT
  5
544
330
540
100
AcDbEntity
  8
cotas
 62
   253
420
 11382189
100
AcDbMText
 10
43.58700356983242
 20
79.58342825701386
 30
0.0
 40
2.964760974778626
 41
0.0
 71
     7
 72
     1
  1
\fArial|b0|i0|c0|p34;\W1;15°
 73
     1
 44
1.0
  0
ENDBLK
  5
543
330
540
100
AcDbEntity
  8
0
100
AcDbBlockEnd
  0
BLOCK
  5
547
330
545
100
AcDbEntity
  8
0
100
AcDbBlockBegin
  2
block 170
 70
     0
 71
     0
 10
0.0
 20
0.0
 30
0.0
  3
block 170
  1

  0
POLYLINE
  5
549
330
545
100
AcDbEntity
  8
cotas
 62
   253
420
 11382189
370
    25
100
AcDb2dPolyline
 66
     1
 10
0.0
 20
0.0
 30
0.0
  0
VERTEX
  5
54A
330
549
100
AcDbEntity
  8
cotas
 62
   253
420
 11382189
370
    25
100
AcDbVertex
100
AcDb2dVertex
 10
57.16429713197629
 20
77.63901636513886
 30
0.0
  0
VERTEX
  5
54B
330
549
100
AcDbEntity
  8
cotas
 62
   253
420
 11382189
370
    25
100
AcDbVertex
100
AcDb2dVertex
 10
57.16429713197629
 20
77.63901636513886
 30
0.0
  0
SEQEND
  5
54C
330
549
100
AcDbEntity
  8
cotas
370
    25
  0
ENDBLK
  5
548
330
545
100
AcDbEntity
  8
0
100
AcDbBlockEnd
  0
BLOCK
  5
54F
330
54D
100
AcDbEntity
  8
0
100
AcDbBlockBegin
  2
block 171
 70
     0
 71
     0
 10
0.0
 20
0.0
 30
0.0
  3
block 171
  1

  0
POLYLINE
  5
551
330
54D
100
AcDbEntity
  8
cotas
 62
   253
420
 11382189
370
    25
100
AcDb2dPolyline
 66
     1
 10
0.0
 20
0.0
 30
0.0
  0
VERTEX
  5
552
330
551
100
AcDbEntity
  8
cotas
 62
   253
420
 11382189
370
    25
100
AcDbVertex
100
AcDb2dVertex
 10
55.16528047666007
 20
88.97544756890197
 30
0.0
  0
VERTEX
  5
553
330
551
100
AcDbEntity
  8
cotas
 62
   253
420
 11382189
370
    25
100
AcDbVertex
100
AcDb2dVertex
 10
55.16528047666007
 20
88.97544756890197
 30
0.0
  0
SEQEND
  5
554
330
551
100
AcDbEntity
  8
cotas
370
    25
  0
ENDBLK
  5
550
330
54D
100
AcDbEntity
  8
0
100
AcDbBlockEnd
  0
BLOCK
  5
557
330
555
100
AcDbEntity
  8
0
100
AcDbBlockBegin
  2
block 172
 70
     0
 71
     0
 10
0.0
 20
0.0
 30
0.0
  3
block 172
  1

  0
POLYLINE
  5
559
330
555
100
AcDbEntity
  8
cotas
 62
   253
420
 11382189
370
    25
100
AcDb2dPolyline
 66
     1
 10
0.0
 20
0.0
 30
0.0
  0
VERTEX
  5
55A
330
559
100
AcDbEntity
  8
cotas
 62
   253
420
 11382189
370
    25
100
AcDbVertex
100
AcDb2dVertex
 10
55.16528047666007
 20
88.97544756890197
 30
0.0
  0
VERTEX
  5
55B
330
559
100
AcDbEntity
  8
cotas
 62
   253
420
 11382189
370
    25
100
AcDbVertex
100
AcDb2dVertex
 10
55.16528047666007
 20
88.97544756890197
 30
0.0
  0
SEQEND
  5
55C
330
559
100
AcDbEntity
  8
cotas
370
    25
  0
ENDBLK
  5
558
330
555
100
AcDbEntity
  8
0
100
AcDbBlockEnd
  0
BLOCK
  5
55F
330
55D
100
AcDbEntity
  8
0
100
AcDbBlockBegin
  2
block 173
 70
     0
 71
     0
 10
0.0
 20
0.0
 30
0.0
  3
block 173
  1

  0
POLYLINE
  5
561
330
55D
100
AcDbEntity
  8
cotas
 62
   253
420
 11382189
370
    25
100
AcDb2dPolyline
 66
     1
 10
0.0
 20
0.0
 30
0.0
  0
VERTEX
  5
562
330
561
100
AcDbEntity
  8
cotas
 62
   253
420
 11382189
370
    25
100
AcDbVertex
100
AcDb2dVertex
 10
55.46241996226287
 20
87.86647133220005
 30
0.0
  0
VERTEX
  5
563
330
561
100
AcDbEntity
  8
cotas
 62
   253
420
 11382189
370
    25
100
AcDbVertex
100
AcDb2dVertex
 10
55.46241996226287
 20
87.86647133220005
 30
0.0
  0
SEQEND
  5
564
330
561
100
AcDbEntity
  8
cotas
370
    25
  0
ENDBLK
  5
560
330
55D
100
AcDbEntity
  8
0
100
AcDbBlockEnd
  0
BLOCK
  5
567
330
565
100
AcDbEntity
  8
0
100
AcDbBlockBegin
  2
block 174
 70
     0
 71
     0
 10
0.0
 20
0.0
 30
0.0
  3
block 174
  1

  0
POLYLINE
  5
569
330
565
100
AcDbEntity
  8
cotas
 62
   253
420
 11382189
370
    25
100
AcDb2dPolyline
 66
     1
 10
0.0
 20
0.0
 30
0.0
  0
VERTEX
  5
56A
330
569
100
AcDbEntity
  8
cotas
 62
   253
420
 11382189
370
    25
100
AcDbVertex
100
AcDb2dVertex
 10
55.16528047666007
 20
87.88438582872335
 30
0.0
  0
VERTEX
  5
56B
330
569
100
AcDbEntity
  8
cotas
 62
   253
420
 11382189
370
    25
100
AcDbVertex
100
AcDb2dVertex
 10
55.16528047666007
 20
87.88438582872335
 30
0.0
  0
SEQEND
  5
56C
330
569
100
AcDbEntity
  8
cotas
370
    25
  0
ENDBLK
  5
568
330
565
100
AcDbEntity
  8
0
100
AcDbBlockEnd
  0
BLOCK
  5
56F
330
56D
100
AcDbEntity
  8
0
100
AcDbBlockBegin
  2
block 175
 70
     0
 71
     0
 10
0.0
 20
0.0
 30
0.0
  3
block 175
  1

  0
INSERT
  5
572
330
56D
100
AcDbEntity
  8
cotas
100
AcDbBlockReference
  2
block 176
 10
0.0
 20
0.0
 30
0.0
  0
INSERT
  5
57A
330
56D
100
AcDbEntity
  8
cotas
100
AcDbBlockReference
  2
block 177
 10
0.0
 20
0.0
 30
0.0
  0
INSERT
  5
582
330
56D
100
AcDbEntity
  8
cotas
100
AcDbBlockReference
  2
block 178
 10
0.0
 20
0.0
 30
0.0
  0
INSERT
  5
58A
330
56D
100
AcDbEntity
  8
cotas
100
AcDbBlockReference
  2
block 179
 10
0.0
 20
0.0
 30
0.0
  0
INSERT
  5
592
330
56D
100
AcDbEntity
  8
cotas
100
AcDbBlockReference
  2
block 180
 10
0.0
 20
0.0
 30
0.0
  0
INSERT
  5
59A
330
56D
100
AcDbEntity
  8
cotas
100
AcDbBlockReference
  2
block 181
 10
0.0
 20
0.0
 30
0.0
  0
INSERT
  5
5A5
330
56D
100
AcDbEntity
  8
cotas
100
AcDbBlockReference
  2
block 182
 10
0.0
 20
0.0
 30
0.0
  0
INSERT
  5
5B0
330
56D
100
AcDbEntity
  8
cotas
100
AcDbBlockReference
  2
block 183
 10
0.0
 20
0.0
 30
0.0
  0
INSERT
  5
5B5
330
56D
100
AcDbEntity
  8
cotas
100
AcDbBlockReference
  2
block 184
 10
0.0
 20
0.0
 30
0.0
  0
INSERT
  5
5BD
330
56D
100
AcDbEntity
  8
cotas
100
AcDbBlockReference
  2
block 185
 10
0.0
 20
0.0
 30
0.0
  0
INSERT
  5
5C5
330
56D
100
AcDbEntity
  8
cotas
100
AcDbBlockReference
  2
block 186
 10
0.0
 20
0.0
 30
0.0
  0
ENDBLK
  5
570
330
56D
100
AcDbEntity
  8
0
100
AcDbBlockEnd
  0
BLOCK
  5
573
330
571
100
AcDbEntity
  8
0
100
AcDbBlockBegin
  2
block 176
 70
     0
 71
     0
 10
0.0
 20
0.0
 30
0.0
  3
block 176
  1

  0
POLYLINE
  5
575
330
571
100
AcDbEntity
  8
cotas
 62
   253
420
 11382189
370
    25
100
AcDb2dPolyline
 66
     1
 10
0.0
 20
0.0
 30
0.0
  0
VERTEX
  5
576
330
575
100
AcDbEntity
  8
cotas
 62
   253
420
 11382189
370
    25
100
AcDbVertex
100
AcDb2dVertex
 10
33.93401827493663
 20
39.55693087118716
 30
0.0
  0
VERTEX
  5
577
330
575
100
AcDbEntity
  8
cotas
 62
   253
420
 11382189
370
    25
100
AcDbVertex
100
AcDb2dVertex
 10
52.68515623682871
 20
39.55693087118716
 30
0.0
  0
SEQEND
  5
578
330
575
100
AcDbEntity
  8
cotas
370
    25
  0
ENDBLK
  5
574
330
571
100
AcDbEntity
  8
0
100
AcDbBlockEnd
  0
BLOCK
  5
57B
330
579
100
AcDbEntity
  8
0
100
AcDbBlockBegin
  2
block 177
 70
     0
 71
     0
 10
0.0
 20
0.0
 30
0.0
  3
block 177
  1

  0
POLYLINE
  5
57D
330
579
100
AcDbEntity
  8
cotas
 62
   253
420
 11382189
370
    25
100
AcDb2dPolyline
 66
     1
 10
0.0
 20
0.0
 30
0.0
  0
VERTEX
  5
57E
330
57D
100
AcDbEntity
  8
cotas
 62
   253
420
 11382189
370
    25
100
AcDbVertex
100
AcDb2dVertex
 10
33.11374103989865
 20
35.23884818997501
 30
0.0
  0
VERTEX
  5
57F
330
57D
100
AcDbEntity
  8
cotas
 62
   253
420
 11382189
370
    25
100
AcDbVertex
100
AcDb2dVertex
 10
52.68515623682871
 20
35.23884818997501
 30
0.0
  0
SEQEND
  5
580
330
57D
100
AcDbEntity
  8
cotas
370
    25
  0
ENDBLK
  5
57C
330
579
100
AcDbEntity
  8
0
100
AcDbBlockEnd
  0
BLOCK
  5
583
330
581
100
AcDbEntity
  8
0
100
AcDbBlockBegin
  2
block 178
 70
     0
 71
     0
 10
0.0
 20
0.0
 30
0.0
  3
block 178
  1

  0
POLYLINE
  5
585
330
581
100
AcDbEntity
  8
cotas
 62
   253
420
 11382189
370
    25
100
AcDb2dPolyline
 66
     1
 10
0.0
 20
0.0
 30
0.0
  0
VERTEX
  5
586
330
585
100
AcDbEntity
  8
cotas
 62
   253
420
 11382189
370
    25
100
AcDbVertex
100
AcDb2dVertex
 10
51.6969305968848
 20
40.94048121806349
 30
0.0
  0
VERTEX
  5
587
330
585
100
AcDbEntity
  8
cotas
 62
   253
420
 11382189
370
    25
100
AcDbVertex
100
AcDb2dVertex
 10
51.6969305968848
 20
42.3236870553913
 30
0.0
  0
SEQEND
  5
588
330
585
100
AcDbEntity
  8
cotas
370
    25
  0
ENDBLK
  5
584
330
581
100
AcDbEntity
  8
0
100
AcDbBlockEnd
  0
BLOCK
  5
58B
330
589
100
AcDbEntity
  8
0
100
AcDbBlockBegin
  2
block 179
 70
     0
 71
     0
 10
0.0
 20
0.0
 30
0.0
  3
block 179
  1

  0
POLYLINE
  5
58D
330
589
100
AcDbEntity
  8
cotas
 62
   253
420
 11382189
370
    25
100
AcDb2dPolyline
 66
     1
 10
0.0
 20
0.0
 30
0.0
  0
VERTEX
  5
58E
330
58D
100
AcDbEntity
  8
cotas
 62
   253
420
 11382189
370
    25
100
AcDbVertex
100
AcDb2dVertex
 10
51.6969305968848
 20
33.85529784309868
 30
0.0
  0
VERTEX
  5
58F
330
58D
100
AcDbEntity
  8
cotas
 62
   253
420
 11382189
370
    25
100
AcDbVertex
100
AcDb2dVertex
 10
51.6969305968848
 20
32.47174749622234
 30
0.0
  0
SEQEND
  5
590
330
58D
100
AcDbEntity
  8
cotas
370
    25
  0
ENDBLK
  5
58C
330
589
100
AcDbEntity
  8
0
100
AcDbBlockEnd
  0
BLOCK
  5
593
330
591
100
AcDbEntity
  8
0
100
AcDbBlockBegin
  2
block 180
 70
     0
 71
     0
 10
0.0
 20
0.0
 30
0.0
  3
block 180
  1

  0
POLYLINE
  5
595
330
591
100
AcDbEntity
  8
cotas
 62
   253
420
 11382189
370
    25
100
AcDb2dPolyline
 66
     1
 10
0.0
 20
0.0
 30
0.0
  0
VERTEX
  5
596
330
595
100
AcDbEntity
  8
cotas
 62
   253
420
 11382189
370
    25
100
AcDbVertex
100
AcDb2dVertex
 10
51.6969305968848
 20
39.55693087118716
 30
0.0
  0
VERTEX
  5
597
330
595
100
AcDbEntity
  8
cotas
 62
   253
420
 11382189
370
    25
100
AcDbVertex
100
AcDb2dVertex
 10
51.6969305968848
 20
35.23884818997501
 30
0.0
  0
SEQEND
  5
598
330
595
100
AcDbEntity
  8
cotas
370
    25
  0
ENDBLK
  5
594
330
591
100
AcDbEntity
  8
0
100
AcDbBlockEnd
  0
BLOCK
  5
59B
330
599
100
AcDbEntity
  8
0
100
AcDbBlockBegin
  2
block 181
 70
     0
 71
     0
 10
0.0
 20
0.0
 30
0.0
  3
block 181
  1

  0
POLYLINE
  5
59D
330
599
100
AcDbEntity
  8
cotas
370
     0
100
AcDb2dPolyline
 66
     1
 10
0.0
 20
0.0
 30
0.0
  0
VERTEX
  5
59E
330
59D
100
AcDbEntity
  8
cotas
370
     0
100
AcDbVertex
100
AcDb2dVertex
 10
51.46628145414732
 20
40.94048121806349
 30
0.0
  0
VERTEX
  5
59F
330
59D
100
AcDbEntity
  8
cotas
370
     0
100
AcDbVertex
100
AcDb2dVertex
 10
51.92757973962227
 20
40.94048121806349
 30
0.0
  0
VERTEX
  5
5A0
330
59D
100
AcDbEntity
  8
cotas
370
     0
100
AcDbVertex
100
AcDb2dVertex
 10
51.6969305968848
 20
39.55693087118716
 30
0.0
  0
VERTEX
  5
5A1
330
59D
100
AcDbEntity
  8
cotas
370
     0
100
AcDbVertex
100
AcDb2dVertex
 10
51.46628145414732
 20
40.94048121806349
 30
0.0
  0
SEQEND
  5
5A2
330
59D
100
AcDbEntity
  8
cotas
370
     0
  0
HATCH
  5
5A3
330
599
100
AcDbEntity
  8
cotas
 62
   253
420
 11382189
100
AcDbHatch
 10
0.0
 20
0.0
 30
0.0
210
0.0
220
0.0
230
1.0
  2
SOLID
 70
     1
 71
     0
 91
        1
 92
        1
 93
        3
 72
     1
 10
51.46628145414732
 20
40.94048121806349
 11
51.92757973962227
 21
40.94048121806349
 72
     1
 10
51.92757973962227
 20
40.94048121806349
 11
51.6969305968848
 21
39.55693087118716
 72
     1
 10
51.6969305968848
 20
39.55693087118716
 11
51.46628145414732
 21
40.94048121806349
 97
        0
 75
     2
 76
     1
 98
        0
  0
ENDBLK
  5
59C
330
599
100
AcDbEntity
  8
0
100
AcDbBlockEnd
  0
BLOCK
  5
5A6
330
5A4
100
AcDbEntity
  8
0
100
AcDbBlockBegin
  2
block 182
 70
     0
 71
     0
 10
0.0
 20
0.0
 30
0.0
  3
block 182
  1

  0
POLYLINE
  5
5A8
330
5A4
100
AcDbEntity
  8
cotas
370
     0
100
AcDb2dPolyline
 66
     1
 10
0.0
 20
0.0
 30
0.0
  0
VERTEX
  5
5A9
330
5A8
100
AcDbEntity
  8
cotas
370
     0
100
AcDbVertex
100
AcDb2dVertex
 10
51.46628145414732
 20
33.85529784309868
 30
0.0
  0
VERTEX
  5
5AA
330
5A8
100
AcDbEntity
  8
cotas
370
     0
100
AcDbVertex
100
AcDb2dVertex
 10
51.92757973962227
 20
33.85529784309868
 30
0.0
  0
VERTEX
  5
5AB
330
5A8
100
AcDbEntity
  8
cotas
370
     0
100
AcDbVertex
100
AcDb2dVertex
 10
51.6969305968848
 20
35.23884818997501
 30
0.0
  0
VERTEX
  5
5AC
330
5A8
100
AcDbEntity
  8
cotas
370
     0
100
AcDbVertex
100
AcDb2dVertex
 10
51.46628145414732
 20
33.85529784309868
 30
0.0
  0
SEQEND
  5
5AD
330
5A8
100
AcDbEntity
  8
cotas
370
     0
  0
HATCH
  5
5AE
330
5A4
100
AcDbEntity
  8
cotas
 62
   253
420
 11382189
100
AcDbHatch
 10
0.0
 20
0.0
 30
0.0
210
0.0
220
0.0
230
1.0
  2
SOLID
 70
     1
 71
     0
 91
        1
 92
        1
 93
        3
 72
     1
 10
51.46628145414732
 20
33.85529784309868
 11
51.92757973962227
 21
33.85529784309868
 72
     1
 10
51.92757973962227
 20
33.85529784309868
 11
51.6969305968848
 21
35.23884818997501
 72
     1
 10
51.6969305968848
 20
35.23884818997501
 11
51.46628145414732
 21
33.85529784309868
 97
        0
 75
     2
 76
     1
 98
        0
  0
ENDBLK
  5
5A7
330
5A4
100
AcDbEntity
  8
0
100
AcDbBlockEnd
  0
BLOCK
  5
5B1
330
5AF
100
AcDbEntity
  8
0
100
AcDbBlockBegin
  2
block 183
 70
     0
 71
     0
 10
0.0
 20
0.0
 30
0.0
  3
block 183
  1

  0
MTEXT
  5
5B3
330
5AF
100
AcDbEntity
  8
cotas
 62
   253
420
 11382189
100
AcDbMText
 10
44.85858831343813
 20
35.94061414032041
 30
0.0
 40
2.964760974778626
 41
0.0
 71
     7
 72
     1
  1
\fArial|b0|i0|c0|p34;\W1;max.45
 73
     1
 44
1.0
  0
ENDBLK
  5
5B2
330
5AF
100
AcDbEntity
  8
0
100
AcDbBlockEnd
  0
BLOCK
  5
5B6
330
5B4
100
AcDbEntity
  8
0
100
AcDbBlockBegin
  2
block 184
 70
     0
 71
     0
 10
0.0
 20
0.0
 30
0.0
  3
block 184
  1

  0
POLYLINE
  5
5B8
330
5B4
100
AcDbEntity
  8
cotas
 62
   253
420
 11382189
370
    25
100
AcDb2dPolyline
 66
     1
 10
0.0
 20
0.0
 30
0.0
  0
VERTEX
  5
5B9
330
5B8
100
AcDbEntity
  8
cotas
 62
   253
420
 11382189
370
    25
100
AcDbVertex
100
AcDb2dVertex
 10
31.9575669950488
 20
39.55693087118716
 30
0.0
  0
VERTEX
  5
5BA
330
5B8
100
AcDbEntity
  8
cotas
 62
   253
420
 11382189
370
    25
100
AcDbVertex
100
AcDb2dVertex
 10
31.9575669950488
 20
39.55693087118716
 30
0.0
  0
SEQEND
  5
5BB
330
5B8
100
AcDbEntity
  8
cotas
370
    25
  0
ENDBLK
  5
5B7
330
5B4
100
AcDbEntity
  8
0
100
AcDbBlockEnd
  0
BLOCK
  5
5BE
330
5BC
100
AcDbEntity
  8
0
100
AcDbBlockBegin
  2
block 185
 70
     0
 71
     0
 10
0.0
 20
0.0
 30
0.0
  3
block 185
  1

  0
POLYLINE
  5
5C0
330
5BC
100
AcDbEntity
  8
cotas
 62
   253
420
 11382189
370
    25
100
AcDb2dPolyline
 66
     1
 10
0.0
 20
0.0
 30
0.0
  0
VERTEX
  5
5C1
330
5C0
100
AcDbEntity
  8
cotas
 62
   253
420
 11382189
370
    25
100
AcDbVertex
100
AcDb2dVertex
 10
31.13728976001082
 20
35.23884818997501
 30
0.0
  0
VERTEX
  5
5C2
330
5C0
100
AcDbEntity
  8
cotas
 62
   253
420
 11382189
370
    25
100
AcDbVertex
100
AcDb2dVertex
 10
31.13728976001082
 20
35.23884818997501
 30
0.0
  0
SEQEND
  5
5C3
330
5C0
100
AcDbEntity
  8
cotas
370
    25
  0
ENDBLK
  5
5BF
330
5BC
100
AcDbEntity
  8
0
100
AcDbBlockEnd
  0
BLOCK
  5
5C6
330
5C4
100
AcDbEntity
  8
0
100
AcDbBlockBegin
  2
block 186
 70
     0
 71
     0
 10
0.0
 20
0.0
 30
0.0
  3
block 186
  1

  0
POLYLINE
  5
5C8
330
5C4
100
AcDbEntity
  8
cotas
 62
   253
420
 11382189
370
    25
100
AcDb2dPolyline
 66
     1
 10
0.0
 20
0.0
 30
0.0
  0
VERTEX
  5
5C9
330
5C8
100
AcDbEntity
  8
cotas
 62
   253
420
 11382189
370
    25
100
AcDbVertex
100
AcDb2dVertex
 10
51.6969305968848
 20
35.23884818997501
 30
0.0
  0
VERTEX
  5
5CA
330
5C8
100
AcDbEntity
  8
cotas
 62
   253
420
 11382189
370
    25
100
AcDbVertex
100
AcDb2dVertex
 10
51.6969305968848
 20
35.23884818997501
 30
0.0
  0
SEQEND
  5
5CB
330
5C8
100
AcDbEntity
  8
cotas
370
    25
  0
ENDBLK
  5
5C7
330
5C4
100
AcDbEntity
  8
0
100
AcDbBlockEnd
  0
BLOCK
  5
5CE
330
5CC
100
AcDbEntity
  8
0
100
AcDbBlockBegin
  2
block 187
 70
     0
 71
     0
 10
0.0
 20
0.0
 30
0.0
  3
block 187
  1

  0
INSERT
  5
5D1
330
5CC
100
AcDbEntity
  8
cotas
100
AcDbBlockReference
  2
block 188
 10
0.0
 20
0.0
 30
0.0
  0
INSERT
  5
5D9
330
5CC
100
AcDbEntity
  8
cotas
100
AcDbBlockReference
  2
block 189
 10
0.0
 20
0.0
 30
0.0
  0
INSERT
  5
5E1
330
5CC
100
AcDbEntity
  8
cotas
100
AcDbBlockReference
  2
block 190
 10
0.0
 20
0.0
 30
0.0
  0
INSERT
  5
5E9
330
5CC
100
AcDbEntity
  8
cotas
100
AcDbBlockReference
  2
block 191
 10
0.0
 20
0.0
 30
0.0
  0
INSERT
  5
5F1
330
5CC
100
AcDbEntity
  8
cotas
100
AcDbBlockReference
  2
block 192
 10
0.0
 20
0.0
 30
0.0
  0
INSERT
  5
5FC
330
5CC
100
AcDbEntity
  8
cotas
100
AcDbBlockReference
  2
block 193
 10
0.0
 20
0.0
 30
0.0
  0
INSERT
  5
607
330
5CC
100
AcDbEntity
  8
cotas
100
AcDbBlockReference
  2
block 194
 10
0.0
 20
0.0
 30
0.0
  0
INSERT
  5
60C
330
5CC
100
AcDbEntity
  8
cotas
100
AcDbBlockReference
  2
block 195
 10
0.0
 20
0.0
 30
0.0
  0
INSERT
  5
614
330
5CC
100
AcDbEntity
  8
cotas
100
AcDbBlockReference
  2
block 196
 10
0.0
 20
0.0
 30
0.0
  0
INSERT
  5
61C
330
5CC
100
AcDbEntity
  8
cotas
100
AcDbBlockReference
  2
block 197
 10
0.0
 20
0.0
 30
0.0
  0
ENDBLK
  5
5CF
330
5CC
100
AcDbEntity
  8
0
100
AcDbBlockEnd
  0
BLOCK
  5
5D2
330
5D0
100
AcDbEntity
  8
0
100
AcDbBlockBegin
  2
block 188
 70
     0
 71
     0
 10
0.0
 20
0.0
 30
0.0
  3
block 188
  1

  0
POLYLINE
  5
5D4
330
5D0
100
AcDbEntity
  8
cotas
 62
   253
420
 11382189
370
    25
100
AcDb2dPolyline
 66
     1
 10
0.0
 20
0.0
 30
0.0
  0
VERTEX
  5
5D5
330
5D4
100
AcDbEntity
  8
cotas
 62
   253
420
 11382189
370
    25
100
AcDbVertex
100
AcDb2dVertex
 10
19.99964056574662
 20
100.8279540763555
 30
0.0
  0
VERTEX
  5
5D6
330
5D4
100
AcDbEntity
  8
cotas
 62
   253
420
 11382189
370
    25
100
AcDbVertex
100
AcDb2dVertex
 10
12.4166408931632
 20
100.8279540763555
 30
0.0
  0
SEQEND
  5
5D7
330
5D4
100
AcDbEntity
  8
cotas
370
    25
  0
ENDBLK
  5
5D3
330
5D0
100
AcDbEntity
  8
0
100
AcDbBlockEnd
  0
BLOCK
  5
5DA
330
5D8
100
AcDbEntity
  8
0
100
AcDbBlockBegin
  2
block 189
 70
     0
 71
     0
 10
0.0
 20
0.0
 30
0.0
  3
block 189
  1

  0
POLYLINE
  5
5DC
330
5D8
100
AcDbEntity
  8
cotas
 62
   253
420
 11382189
370
    25
100
AcDb2dPolyline
 66
     1
 10
0.0
 20
0.0
 30
0.0
  0
VERTEX
  5
5DD
330
5DC
100
AcDbEntity
  8
cotas
 62
   253
420
 11382189
370
    25
100
AcDbVertex
100
AcDb2dVertex
 10
19.99964056574662
 20
39.55693087118716
 30
0.0
  0
VERTEX
  5
5DE
330
5DC
100
AcDbEntity
  8
cotas
 62
   253
420
 11382189
370
    25
100
AcDbVertex
100
AcDb2dVertex
 10
12.4166408931632
 20
39.55693087118716
 30
0.0
  0
SEQEND
  5
5DF
330
5DC
100
AcDbEntity
  8
cotas
370
    25
  0
ENDBLK
  5
5DB
330
5D8
100
AcDbEntity
  8
0
100
AcDbBlockEnd
  0
BLOCK
  5
5E2
330
5E0
100
AcDbEntity
  8
0
100
AcDbBlockBegin
  2
block 190
 70
     0
 71
     0
 10
0.0
 20
0.0
 30
0.0
  3
block 190
  1

  0
POLYLINE
  5
5E4
330
5E0
100
AcDbEntity
  8
cotas
 62
   253
420
 11382189
370
    25
100
AcDb2dPolyline
 66
     1
 10
0.0
 20
0.0
 30
0.0
  0
VERTEX
  5
5E5
330
5E4
100
AcDbEntity
  8
cotas
 62
   253
420
 11382189
370
    25
100
AcDbVertex
100
AcDb2dVertex
 10
13.40486653310712
 20
99.44440372947918
 30
0.0
  0
VERTEX
  5
5E6
330
5E4
100
AcDbEntity
  8
cotas
 62
   253
420
 11382189
370
    25
100
AcDbVertex
100
AcDb2dVertex
 10
13.40486653310712
 20
73.683357728975
 30
0.0
  0
SEQEND
  5
5E7
330
5E4
100
AcDbEntity
  8
cotas
370
    25
  0
ENDBLK
  5
5E3
330
5E0
100
AcDbEntity
  8
0
100
AcDbBlockEnd
  0
BLOCK
  5
5EA
330
5E8
100
AcDbEntity
  8
0
100
AcDbBlockBegin
  2
block 191
 70
     0
 71
     0
 10
0.0
 20
0.0
 30
0.0
  3
block 191
  1

  0
POLYLINE
  5
5EC
330
5E8
100
AcDbEntity
  8
cotas
 62
   253
420
 11382189
370
    25
100
AcDb2dPolyline
 66
     1
 10
0.0
 20
0.0
 30
0.0
  0
VERTEX
  5
5ED
330
5EC
100
AcDbEntity
  8
cotas
 62
   253
420
 11382189
370
    25
100
AcDbVertex
100
AcDb2dVertex
 10
13.40486653310712
 20
40.94048121806349
 30
0.0
  0
VERTEX
  5
5EE
330
5EC
100
AcDbEntity
  8
cotas
 62
   253
420
 11382189
370
    25
100
AcDbVertex
100
AcDb2dVertex
 10
13.40486653310712
 20
66.70118270901915
 30
0.0
  0
SEQEND
  5
5EF
330
5EC
100
AcDbEntity
  8
cotas
370
    25
  0
ENDBLK
  5
5EB
330
5E8
100
AcDbEntity
  8
0
100
AcDbBlockEnd
  0
BLOCK
  5
5F2
330
5F0
100
AcDbEntity
  8
0
100
AcDbBlockBegin
  2
block 192
 70
     0
 71
     0
 10
0.0
 20
0.0
 30
0.0
  3
block 192
  1

  0
POLYLINE
  5
5F4
330
5F0
100
AcDbEntity
  8
cotas
370
     0
100
AcDb2dPolyline
 66
     1
 10
0.0
 20
0.0
 30
0.0
  0
VERTEX
  5
5F5
330
5F4
100
AcDbEntity
  8
cotas
370
     0
100
AcDbVertex
100
AcDb2dVertex
 10
13.1743896451439
 20
99.44440372947918
 30
0.0
  0
VERTEX
  5
5F6
330
5F4
100
AcDbEntity
  8
cotas
370
     0
100
AcDbVertex
100
AcDb2dVertex
 10
13.63551567584459
 20
99.44440372947918
 30
0.0
  0
VERTEX
  5
5F7
330
5F4
100
AcDbEntity
  8
cotas
370
     0
100
AcDbVertex
100
AcDb2dVertex
 10
13.40486653310712
 20
100.8279540763555
 30
0.0
  0
VERTEX
  5
5F8
330
5F4
100
AcDbEntity
  8
cotas
370
     0
100
AcDbVertex
100
AcDb2dVertex
 10
13.1743896451439
 20
99.44440372947918
 30
0.0
  0
SEQEND
  5
5F9
330
5F4
100
AcDbEntity
  8
cotas
370
     0
  0
HATCH
  5
5FA
330
5F0
100
AcDbEntity
  8
cotas
 62
   253
420
 11382189
100
AcDbHatch
 10
0.0
 20
0.0
 30
0.0
210
0.0
220
0.0
230
1.0
  2
SOLID
 70
     1
 71
     0
 91
        1
 92
        1
 93
        3
 72
     1
 10
13.1743896451439
 20
99.44440372947918
 11
13.63551567584459
 21
99.44440372947918
 72
     1
 10
13.63551567584459
 20
99.44440372947918
 11
13.40486653310712
 21
100.8279540763555
 72
     1
 10
13.40486653310712
 20
100.8279540763555
 11
13.1743896451439
 21
99.44440372947918
 97
        0
 75
     2
 76
     1
 98
        0
  0
ENDBLK
  5
5F3
330
5F0
100
AcDbEntity
  8
0
100
AcDbBlockEnd
  0
BLOCK
  5
5FD
330
5FB
100
AcDbEntity
  8
0
100
AcDbBlockBegin
  2
block 193
 70
     0
 71
     0
 10
0.0
 20
0.0
 30
0.0
  3
block 193
  1

  0
POLYLINE
  5
5FF
330
5FB
100
AcDbEntity
  8
cotas
370
     0
100
AcDb2dPolyline
 66
     1
 10
0.0
 20
0.0
 30
0.0
  0
VERTEX
  5
600
330
5FF
100
AcDbEntity
  8
cotas
370
     0
100
AcDbVertex
100
AcDb2dVertex
 10
13.1743896451439
 20
40.94048121806349
 30
0.0
  0
VERTEX
  5
601
330
5FF
100
AcDbEntity
  8
cotas
370
     0
100
AcDbVertex
100
AcDb2dVertex
 10
13.63551567584459
 20
40.94048121806349
 30
0.0
  0
VERTEX
  5
602
330
5FF
100
AcDbEntity
  8
cotas
370
     0
100
AcDbVertex
100
AcDb2dVertex
 10
13.40486653310712
 20
39.55693087118716
 30
0.0
  0
VERTEX
  5
603
330
5FF
100
AcDbEntity
  8
cotas
370
     0
100
AcDbVertex
100
AcDb2dVertex
 10
13.1743896451439
 20
40.94048121806349
 30
0.0
  0
SEQEND
  5
604
330
5FF
100
AcDbEntity
  8
cotas
370
     0
  0
HATCH
  5
605
330
5FB
100
AcDbEntity
  8
cotas
 62
   253
420
 11382189
100
AcDbHatch
 10
0.0
 20
0.0
 30
0.0
210
0.0
220
0.0
230
1.0
  2
SOLID
 70
     1
 71
     0
 91
        1
 92
        1
 93
        3
 72
     1
 10
13.1743896451439
 20
40.94048121806349
 11
13.63551567584459
 21
40.94048121806349
 72
     1
 10
13.63551567584459
 20
40.94048121806349
 11
13.40486653310712
 21
39.55693087118716
 72
     1
 10
13.40486653310712
 20
39.55693087118716
 11
13.1743896451439
 21
40.94048121806349
 97
        0
 75
     2
 76
     1
 98
        0
  0
ENDBLK
  5
5FE
330
5FB
100
AcDbEntity
  8
0
100
AcDbBlockEnd
  0
BLOCK
  5
608
330
606
100
AcDbEntity
  8
0
100
AcDbBlockBegin
  2
block 194
 70
     0
 71
     0
 10
0.0
 20
0.0
 30
0.0
  3
block 194
  1

  0
MTEXT
  5
60A
330
606
100
AcDbEntity
  8
cotas
 62
   253
420
 11382189
100
AcDbMText
 10
9.965799964956467
 20
68.72931042118573
 30
0.0
 40
2.964760974778626
 41
0.0
 71
     7
 72
     1
  1
\fArial|b0|i0|c0|p34;\W1;310
 73
     1
 44
1.0
  0
ENDBLK
  5
609
330
606
100
AcDbEntity
  8
0
100
AcDbBlockEnd
  0
BLOCK
  5
60D
330
60B
100
AcDbEntity
  8
0
100
AcDbBlockBegin
  2
block 195
 70
     0
 71
     0
 10
0.0
 20
0.0
 30
0.0
  3
block 195
  1

  0
POLYLINE
  5
60F
330
60B
100
AcDbEntity
  8
cotas
 62
   253
420
 11382189
370
    25
100
AcDb2dPolyline
 66
     1
 10
0.0
 20
0.0
 30
0.0
  0
VERTEX
  5
610
330
60F
100
AcDbEntity
  8
cotas
 62
   253
420
 11382189
370
    25
100
AcDbVertex
100
AcDb2dVertex
 10
21.97626410040871
 20
100.8279540763555
 30
0.0
  0
VERTEX
  5
611
330
60F
100
AcDbEntity
  8
cotas
 62
   253
420
 11382189
370
    25
100
AcDbVertex
100
AcDb2dVertex
 10
21.97626410040871
 20
100.8279540763555
 30
0.0
  0
SEQEND
  5
612
330
60F
100
AcDbEntity
  8
cotas
370
    25
  0
ENDBLK
  5
60E
330
60B
100
AcDbEntity
  8
0
100
AcDbBlockEnd
  0
BLOCK
  5
615
330
613
100
AcDbEntity
  8
0
100
AcDbBlockBegin
  2
block 196
 70
     0
 71
     0
 10
0.0
 20
0.0
 30
0.0
  3
block 196
  1

  0
POLYLINE
  5
617
330
613
100
AcDbEntity
  8
cotas
 62
   253
420
 11382189
370
    25
100
AcDb2dPolyline
 66
     1
 10
0.0
 20
0.0
 30
0.0
  0
VERTEX
  5
618
330
617
100
AcDbEntity
  8
cotas
 62
   253
420
 11382189
370
    25
100
AcDbVertex
100
AcDb2dVertex
 10
21.97626410040871
 20
39.55693087118716
 30
0.0
  0
VERTEX
  5
619
330
617
100
AcDbEntity
  8
cotas
 62
   253
420
 11382189
370
    25
100
AcDbVertex
100
AcDb2dVertex
 10
21.97626410040871
 20
39.55693087118716
 30
0.0
  0
SEQEND
  5
61A
330
617
100
AcDbEntity
  8
cotas
370
    25
  0
ENDBLK
  5
616
330
613
100
AcDbEntity
  8
0
100
AcDbBlockEnd
  0
BLOCK
  5
61D
330
61B
100
AcDbEntity
  8
0
100
AcDbBlockBegin
  2
block 197
 70
     0
 71
     0
 10
0.0
 20
0.0
 30
0.0
  3
block 197
  1

  0
POLYLINE
  5
61F
330
61B
100
AcDbEntity
  8
cotas
 62
   253
420
 11382189
370
    25
100
AcDb2dPolyline
 66
     1
 10
0.0
 20
0.0
 30
0.0
  0
VERTEX
  5
620
330
61F
100
AcDbEntity
  8
cotas
 62
   253
420
 11382189
370
    25
100
AcDbVertex
100
AcDb2dVertex
 10
13.40486653310712
 20
39.55693087118716
 30
0.0
  0
VERTEX
  5
621
330
61F
100
AcDbEntity
  8
cotas
 62
   253
420
 11382189
370
    25
100
AcDbVertex
100
AcDb2dVertex
 10
13.40486653310712
 20
39.55693087118716
 30
0.0
  0
SEQEND
  5
622
330
61F
100
AcDbEntity
  8
cotas
370
    25
  0
ENDBLK
  5
61E
330
61B
100
AcDbEntity
  8
0
100
AcDbBlockEnd
  0
BLOCK
  5
625
330
623
100
AcDbEntity
  8
0
100
AcDbBlockBegin
  2
block 198
 70
     0
 71
     0
 10
0.0
 20
0.0
 30
0.0
  3
block 198
  1

  0
INSERT
  5
628
330
623
100
AcDbEntity
  8
cotas
100
AcDbBlockReference
  2
block 199
 10
0.0
 20
0.0
 30
0.0
  0
INSERT
  5
630
330
623
100
AcDbEntity
  8
cotas
100
AcDbBlockReference
  2
block 200
 10
0.0
 20
0.0
 30
0.0
  0
INSERT
  5
638
330
623
100
AcDbEntity
  8
cotas
100
AcDbBlockReference
  2
block 201
 10
0.0
 20
0.0
 30
0.0
  0
INSERT
  5
640
330
623
100
AcDbEntity
  8
cotas
100
AcDbBlockReference
  2
block 202
 10
0.0
 20
0.0
 30
0.0
  0
INSERT
  5
648
330
623
100
AcDbEntity
  8
cotas
100
AcDbBlockReference
  2
block 203
 10
0.0
 20
0.0
 30
0.0
  0
INSERT
  5
653
330
623
100
AcDbEntity
  8
cotas
100
AcDbBlockReference
  2
block 204
 10
0.0
 20
0.0
 30
0.0
  0
INSERT
  5
65E
330
623
100
AcDbEntity
  8
cotas
100
AcDbBlockReference
  2
block 205
 10
0.0
 20
0.0
 30
0.0
  0
INSERT
  5
663
330
623
100
AcDbEntity
  8
cotas
100
AcDbBlockReference
  2
block 206
 10
0.0
 20
0.0
 30
0.0
  0
INSERT
  5
66B
330
623
100
AcDbEntity
  8
cotas
100
AcDbBlockReference
  2
block 207
 10
0.0
 20
0.0
 30
0.0
  0
INSERT
  5
673
330
623
100
AcDbEntity
  8
cotas
100
AcDbBlockReference
  2
block 208
 10
0.0
 20
0.0
 30
0.0
  0
ENDBLK
  5
626
330
623
100
AcDbEntity
  8
0
100
AcDbBlockEnd
  0
BLOCK
  5
629
330
627
100
AcDbEntity
  8
0
100
AcDbBlockBegin
  2
block 199
 70
     0
 71
     0
 10
0.0
 20
0.0
 30
0.0
  3
block 199
  1

  0
POLYLINE
  5
62B
330
627
100
AcDbEntity
  8
cotas
 62
   253
420
 11382189
370
    25
100
AcDb2dPolyline
 66
     1
 10
0.0
 20
0.0
 30
0.0
  0
VERTEX
  5
62C
330
62B
100
AcDbEntity
  8
cotas
 62
   253
420
 11382189
370
    25
100
AcDbVertex
100
AcDb2dVertex
 10
57.14018146357954
 20
88.97475854980493
 30
0.0
  0
VERTEX
  5
62D
330
62B
100
AcDbEntity
  8
cotas
 62
   253
420
 11382189
370
    25
100
AcDbVertex
100
AcDb2dVertex
 10
68.47144502411479
 20
88.97475854980493
 30
0.0
  0
SEQEND
  5
62E
330
62B
100
AcDbEntity
  8
cotas
370
    25
  0
ENDBLK
  5
62A
330
627
100
AcDbEntity
  8
0
100
AcDbBlockEnd
  0
BLOCK
  5
631
330
62F
100
AcDbEntity
  8
0
100
AcDbBlockBegin
  2
block 200
 70
     0
 71
     0
 10
0.0
 20
0.0
 30
0.0
  3
block 200
  1

  0
POLYLINE
  5
633
330
62F
100
AcDbEntity
  8
cotas
 62
   253
420
 11382189
370
    25
100
AcDb2dPolyline
 66
     1
 10
0.0
 20
0.0
 30
0.0
  0
VERTEX
  5
634
330
633
100
AcDbEntity
  8
cotas
 62
   253
420
 11382189
370
    25
100
AcDbVertex
100
AcDb2dVertex
 10
33.93401827493663
 20
39.55693087118716
 30
0.0
  0
VERTEX
  5
635
330
633
100
AcDbEntity
  8
cotas
 62
   253
420
 11382189
370
    25
100
AcDbVertex
100
AcDb2dVertex
 10
68.47144502411479
 20
39.55693087118716
 30
0.0
  0
SEQEND
  5
636
330
633
100
AcDbEntity
  8
cotas
370
    25
  0
ENDBLK
  5
632
330
62F
100
AcDbEntity
  8
0
100
AcDbBlockEnd
  0
BLOCK
  5
639
330
637
100
AcDbEntity
  8
0
100
AcDbBlockBegin
  2
block 201
 70
     0
 71
     0
 10
0.0
 20
0.0
 30
0.0
  3
block 201
  1

  0
POLYLINE
  5
63B
330
637
100
AcDbEntity
  8
cotas
 62
   253
420
 11382189
370
    25
100
AcDb2dPolyline
 66
     1
 10
0.0
 20
0.0
 30
0.0
  0
VERTEX
  5
63C
330
63B
100
AcDbEntity
  8
cotas
 62
   253
420
 11382189
370
    25
100
AcDbVertex
100
AcDb2dVertex
 10
67.48321938417087
 20
87.59120820292858
 30
0.0
  0
VERTEX
  5
63D
330
63B
100
AcDbEntity
  8
cotas
 62
   253
420
 11382189
370
    25
100
AcDbVertex
100
AcDb2dVertex
 10
67.48321938417087
 20
67.75607094660265
 30
0.0
  0
SEQEND
  5
63E
330
63B
100
AcDbEntity
  8
cotas
370
    25
  0
ENDBLK
  5
63A
330
637
100
AcDbEntity
  8
0
100
AcDbBlockEnd
  0
BLOCK
  5
641
330
63F
100
AcDbEntity
  8
0
100
AcDbBlockBegin
  2
block 202
 70
     0
 71
     0
 10
0.0
 20
0.0
 30
0.0
  3
block 202
  1

  0
POLYLINE
  5
643
330
63F
100
AcDbEntity
  8
cotas
 62
   253
420
 11382189
370
    25
100
AcDb2dPolyline
 66
     1
 10
0.0
 20
0.0
 30
0.0
  0
VERTEX
  5
644
330
643
100
AcDbEntity
  8
cotas
 62
   253
420
 11382189
370
    25
100
AcDbVertex
100
AcDb2dVertex
 10
67.48321938417087
 20
40.94048121806349
 30
0.0
  0
VERTEX
  5
645
330
643
100
AcDbEntity
  8
cotas
 62
   253
420
 11382189
370
    25
100
AcDbVertex
100
AcDb2dVertex
 10
67.48321938417087
 20
60.77561847438943
 30
0.0
  0
SEQEND
  5
646
330
643
100
AcDbEntity
  8
cotas
370
    25
  0
ENDBLK
  5
642
330
63F
100
AcDbEntity
  8
0
100
AcDbBlockEnd
  0
BLOCK
  5
649
330
647
100
AcDbEntity
  8
0
100
AcDbBlockBegin
  2
block 203
 70
     0
 71
     0
 10
0.0
 20
0.0
 30
0.0
  3
block 203
  1

  0
POLYLINE
  5
64B
330
647
100
AcDbEntity
  8
cotas
370
     0
100
AcDb2dPolyline
 66
     1
 10
0.0
 20
0.0
 30
0.0
  0
VERTEX
  5
64C
330
64B
100
AcDbEntity
  8
cotas
370
     0
100
AcDbVertex
100
AcDb2dVertex
 10
67.25257024143339
 20
87.59120820292858
 30
0.0
  0
VERTEX
  5
64D
330
64B
100
AcDbEntity
  8
cotas
370
     0
100
AcDbVertex
100
AcDb2dVertex
 10
67.71369627213407
 20
87.59120820292858
 30
0.0
  0
VERTEX
  5
64E
330
64B
100
AcDbEntity
  8
cotas
370
     0
100
AcDbVertex
100
AcDb2dVertex
 10
67.48321938417087
 20
88.97475854980493
 30
0.0
  0
VERTEX
  5
64F
330
64B
100
AcDbEntity
  8
cotas
370
     0
100
AcDbVertex
100
AcDb2dVertex
 10
67.25257024143339
 20
87.59120820292858
 30
0.0
  0
SEQEND
  5
650
330
64B
100
AcDbEntity
  8
cotas
370
     0
  0
HATCH
  5
651
330
647
100
AcDbEntity
  8
cotas
 62
   253
420
 11382189
100
AcDbHatch
 10
0.0
 20
0.0
 30
0.0
210
0.0
220
0.0
230
1.0
  2
SOLID
 70
     1
 71
     0
 91
        1
 92
        1
 93
        3
 72
     1
 10
67.25257024143339
 20
87.59120820292858
 11
67.71369627213407
 21
87.59120820292858
 72
     1
 10
67.71369627213407
 20
87.59120820292858
 11
67.48321938417087
 21
88.97475854980493
 72
     1
 10
67.48321938417087
 20
88.97475854980493
 11
67.25257024143339
 21
87.59120820292858
 97
        0
 75
     2
 76
     1
 98
        0
  0
ENDBLK
  5
64A
330
647
100
AcDbEntity
  8
0
100
AcDbBlockEnd
  0
BLOCK
  5
654
330
652
100
AcDbEntity
  8
0
100
AcDbBlockBegin
  2
block 204
 70
     0
 71
     0
 10
0.0
 20
0.0
 30
0.0
  3
block 204
  1

  0
POLYLINE
  5
656
330
652
100
AcDbEntity
  8
cotas
370
     0
100
AcDb2dPolyline
 66
     1
 10
0.0
 20
0.0
 30
0.0
  0
VERTEX
  5
657
330
656
100
AcDbEntity
  8
cotas
370
     0
100
AcDbVertex
100
AcDb2dVertex
 10
67.25257024143339
 20
40.94048121806349
 30
0.0
  0
VERTEX
  5
658
330
656
100
AcDbEntity
  8
cotas
370
     0
100
AcDbVertex
100
AcDb2dVertex
 10
67.71369627213407
 20
40.94048121806349
 30
0.0
  0
VERTEX
  5
659
330
656
100
AcDbEntity
  8
cotas
370
     0
100
AcDbVertex
100
AcDb2dVertex
 10
67.48321938417087
 20
39.55693087118716
 30
0.0
  0
VERTEX
  5
65A
330
656
100
AcDbEntity
  8
cotas
370
     0
100
AcDbVertex
100
AcDb2dVertex
 10
67.25257024143339
 20
40.94048121806349
 30
0.0
  0
SEQEND
  5
65B
330
656
100
AcDbEntity
  8
cotas
370
     0
  0
HATCH
  5
65C
330
652
100
AcDbEntity
  8
cotas
 62
   253
420
 11382189
100
AcDbHatch
 10
0.0
 20
0.0
 30
0.0
210
0.0
220
0.0
230
1.0
  2
SOLID
 70
     1
 71
     0
 91
        1
 92
        1
 93
        3
 72
     1
 10
67.25257024143339
 20
40.94048121806349
 11
67.71369627213407
 21
40.94048121806349
 72
     1
 10
67.71369627213407
 20
40.94048121806349
 11
67.48321938417087
 21
39.55693087118716
 72
     1
 10
67.48321938417087
 20
39.55693087118716
 11
67.25257024143339
 21
40.94048121806349
 97
        0
 75
     2
 76
     1
 98
        0
  0
ENDBLK
  5
655
330
652
100
AcDbEntity
  8
0
100
AcDbBlockEnd
  0
BLOCK
  5
65F
330
65D
100
AcDbEntity
  8
0
100
AcDbBlockBegin
  2
block 205
 70
     0
 71
     0
 10
0.0
 20
0.0
 30
0.0
  3
block 205
  1

  0
MTEXT
  5
661
330
65D
100
AcDbEntity
  8
cotas
 62
   253
420
 11382189
100
AcDbMText
 10
64.0708523060309
 20
62.80271265791043
 30
0.0
 40
2.964760974778626
 41
0.0
 71
     7
 72
     1
  1
\fArial|b0|i0|c0|p34;\W1;250
 73
     1
 44
1.0
  0
ENDBLK
  5
660
330
65D
100
AcDbEntity
  8
0
100
AcDbBlockEnd
  0
BLOCK
  5
664
330
662
100
AcDbEntity
  8
0
100
AcDbBlockBegin
  2
block 206
 70
     0
 71
     0
 10
0.0
 20
0.0
 30
0.0
  3
block 206
  1

  0
POLYLINE
  5
666
330
662
100
AcDbEntity
  8
cotas
 62
   253
420
 11382189
370
    25
100
AcDb2dPolyline
 66
     1
 10
0.0
 20
0.0
 30
0.0
  0
VERTEX
  5
667
330
666
100
AcDbEntity
  8
cotas
 62
   253
420
 11382189
370
    25
100
AcDbVertex
100
AcDb2dVertex
 10
55.16355792891745
 20
88.97475854980493
 30
0.0
  0
VERTEX
  5
668
330
666
100
AcDbEntity
  8
cotas
 62
   253
420
 11382189
370
    25
100
AcDbVertex
100
AcDb2dVertex
 10
55.16355792891745
 20
88.97475854980493
 30
0.0
  0
SEQEND
  5
669
330
666
100
AcDbEntity
  8
cotas
370
    25
  0
ENDBLK
  5
665
330
662
100
AcDbEntity
  8
0
100
AcDbBlockEnd
  0
BLOCK
  5
66C
330
66A
100
AcDbEntity
  8
0
100
AcDbBlockBegin
  2
block 207
 70
     0
 71
     0
 10
0.0
 20
0.0
 30
0.0
  3
block 207
  1

  0
POLYLINE
  5
66E
330
66A
100
AcDbEntity
  8
cotas
 62
   253
420
 11382189
370
    25
100
AcDb2dPolyline
 66
     1
 10
0.0
 20
0.0
 30
0.0
  0
VERTEX
  5
66F
330
66E
100
AcDbEntity
  8
cotas
 62
   253
420
 11382189
370
    25
100
AcDbVertex
100
AcDb2dVertex
 10
31.9575669950488
 20
39.55693087118716
 30
0.0
  0
VERTEX
  5
670
330
66E
100
AcDbEntity
  8
cotas
 62
   253
420
 11382189
370
    25
100
AcDbVertex
100
AcDb2dVertex
 10
31.9575669950488
 20
39.55693087118716
 30
0.0
  0
SEQEND
  5
671
330
66E
100
AcDbEntity
  8
cotas
370
    25
  0
ENDBLK
  5
66D
330
66A
100
AcDbEntity
  8
0
100
AcDbBlockEnd
  0
BLOCK
  5
674
330
672
100
AcDbEntity
  8
0
100
AcDbBlockBegin
  2
block 208
 70
     0
 71
     0
 10
0.0
 20
0.0
 30
0.0
  3
block 208
  1

  0
POLYLINE
  5
676
330
672
100
AcDbEntity
  8
cotas
 62
   253
420
 11382189
370
    25
100
AcDb2dPolyline
 66
     1
 10
0.0
 20
0.0
 30
0.0
  0
VERTEX
  5
677
330
676
100
AcDbEntity
  8
cotas
 62
   253
420
 11382189
370
    25
100
AcDbVertex
100
AcDb2dVertex
 10
67.48321938417087
 20
39.55693087118716
 30
0.0
  0
VERTEX
  5
678
330
676
100
AcDbEntity
  8
cotas
 62
   253
420
 11382189
370
    25
100
AcDbVertex
100
AcDb2dVertex
 10
67.48321938417087
 20
39.55693087118716
 30
0.0
  0
SEQEND
  5
679
330
676
100
AcDbEntity
  8
cotas
370
    25
  0
ENDBLK
  5
675
330
672
100
AcDbEntity
  8
0
100
AcDbBlockEnd
  0
BLOCK
  5
67C
330
67A
100
AcDbEntity
  8
0
100
AcDbBlockBegin
  2
block 209
 70
     0
 71
     0
 10
0.0
 20
0.0
 30
0.0
  3
block 209
  1

  0
INSERT
  5
67F
330
67A
100
AcDbEntity
  8
cotas
100
AcDbBlockReference
  2
block 210
 10
0.0
 20
0.0
 30
0.0
  0
INSERT
  5
687
330
67A
100
AcDbEntity
  8
cotas
100
AcDbBlockReference
  2
block 211
 10
0.0
 20
0.0
 30
0.0
  0
INSERT
  5
68F
330
67A
100
AcDbEntity
  8
cotas
100
AcDbBlockReference
  2
block 212
 10
0.0
 20
0.0
 30
0.0
  0
INSERT
  5
697
330
67A
100
AcDbEntity
  8
cotas
100
AcDbBlockReference
  2
block 213
 10
0.0
 20
0.0
 30
0.0
  0
INSERT
  5
69F
330
67A
100
AcDbEntity
  8
cotas
100
AcDbBlockReference
  2
block 214
 10
0.0
 20
0.0
 30
0.0
  0
INSERT
  5
6AA
330
67A
100
AcDbEntity
  8
cotas
100
AcDbBlockReference
  2
block 215
 10
0.0
 20
0.0
 30
0.0
  0
INSERT
  5
6B5
330
67A
100
AcDbEntity
  8
cotas
100
AcDbBlockReference
  2
block 216
 10
0.0
 20
0.0
 30
0.0
  0
INSERT
  5
6BA
330
67A
100
AcDbEntity
  8
cotas
100
AcDbBlockReference
  2
block 217
 10
0.0
 20
0.0
 30
0.0
  0
INSERT
  5
6C2
330
67A
100
AcDbEntity
  8
cotas
100
AcDbBlockReference
  2
block 218
 10
0.0
 20
0.0
 30
0.0
  0
INSERT
  5
6CA
330
67A
100
AcDbEntity
  8
cotas
100
AcDbBlockReference
  2
block 219
 10
0.0
 20
0.0
 30
0.0
  0
ENDBLK
  5
67D
330
67A
100
AcDbEntity
  8
0
100
AcDbBlockEnd
  0
BLOCK
  5
680
330
67E
100
AcDbEntity
  8
0
100
AcDbBlockBegin
  2
block 210
 70
     0
 71
     0
 10
0.0
 20
0.0
 30
0.0
  3
block 210
  1

  0
POLYLINE
  5
682
330
67E
100
AcDbEntity
  8
cotas
 62
   253
420
 11382189
370
    25
100
AcDb2dPolyline
 66
     1
 10
0.0
 20
0.0
 30
0.0
  0
VERTEX
  5
683
330
682
100
AcDbEntity
  8
cotas
 62
   253
420
 11382189
370
    25
100
AcDbVertex
100
AcDb2dVertex
 10
20.09851480617329
 20
39.55693087118716
 30
0.0
  0
VERTEX
  5
684
330
682
100
AcDbEntity
  8
cotas
 62
   253
420
 11382189
370
    25
100
AcDbVertex
100
AcDb2dVertex
 10
12.4166408931632
 20
39.55693087118716
 30
0.0
  0
SEQEND
  5
685
330
682
100
AcDbEntity
  8
cotas
370
    25
  0
ENDBLK
  5
681
330
67E
100
AcDbEntity
  8
0
100
AcDbBlockEnd
  0
BLOCK
  5
688
330
686
100
AcDbEntity
  8
0
100
AcDbBlockBegin
  2
block 211
 70
     0
 71
     0
 10
0.0
 20
0.0
 30
0.0
  3
block 211
  1

  0
POLYLINE
  5
68A
330
686
100
AcDbEntity
  8
cotas
 62
   253
420
 11382189
370
    25
100
AcDb2dPolyline
 66
     1
 10
0.0
 20
0.0
 30
0.0
  0
VERTEX
  5
68B
330
68A
100
AcDbEntity
  8
cotas
 62
   253
420
 11382189
370
    25
100
AcDbVertex
100
AcDb2dVertex
 10
24.76300183842731
 20
16.53094617642282
 30
0.0
  0
VERTEX
  5
68C
330
68A
100
AcDbEntity
  8
cotas
 62
   253
420
 11382189
370
    25
100
AcDbVertex
100
AcDb2dVertex
 10
12.4166408931632
 20
16.53094617642282
 30
0.0
  0
SEQEND
  5
68D
330
68A
100
AcDbEntity
  8
cotas
370
    25
  0
ENDBLK
  5
689
330
686
100
AcDbEntity
  8
0
100
AcDbBlockEnd
  0
BLOCK
  5
690
330
68E
100
AcDbEntity
  8
0
100
AcDbBlockBegin
  2
block 212
 70
     0
 71
     0
 10
0.0
 20
0.0
 30
0.0
  3
block 212
  1

  0
POLYLINE
  5
692
330
68E
100
AcDbEntity
  8
cotas
 62
   253
420
 11382189
370
    25
100
AcDb2dPolyline
 66
     1
 10
0.0
 20
0.0
 30
0.0
  0
VERTEX
  5
693
330
692
100
AcDbEntity
  8
cotas
 62
   253
420
 11382189
370
    25
100
AcDbVertex
100
AcDb2dVertex
 10
13.40486653310712
 20
38.1730360147623
 30
0.0
  0
VERTEX
  5
694
330
692
100
AcDbEntity
  8
cotas
 62
   253
420
 11382189
370
    25
100
AcDbVertex
100
AcDb2dVertex
 10
13.40486653310712
 20
31.50264213622156
 30
0.0
  0
SEQEND
  5
695
330
692
100
AcDbEntity
  8
cotas
370
    25
  0
ENDBLK
  5
691
330
68E
100
AcDbEntity
  8
0
100
AcDbBlockEnd
  0
BLOCK
  5
698
330
696
100
AcDbEntity
  8
0
100
AcDbBlockBegin
  2
block 213
 70
     0
 71
     0
 10
0.0
 20
0.0
 30
0.0
  3
block 213
  1

  0
POLYLINE
  5
69A
330
696
100
AcDbEntity
  8
cotas
 62
   253
420
 11382189
370
    25
100
AcDb2dPolyline
 66
     1
 10
0.0
 20
0.0
 30
0.0
  0
VERTEX
  5
69B
330
69A
100
AcDbEntity
  8
cotas
 62
   253
420
 11382189
370
    25
100
AcDbVertex
100
AcDb2dVertex
 10
13.40486653310712
 20
17.91449652329915
 30
0.0
  0
VERTEX
  5
69C
330
69A
100
AcDbEntity
  8
cotas
 62
   253
420
 11382189
370
    25
100
AcDbVertex
100
AcDb2dVertex
 10
13.40486653310712
 20
24.58489040183989
 30
0.0
  0
SEQEND
  5
69D
330
69A
100
AcDbEntity
  8
cotas
370
    25
  0
ENDBLK
  5
699
330
696
100
AcDbEntity
  8
0
100
AcDbBlockEnd
  0
BLOCK
  5
6A0
330
69E
100
AcDbEntity
  8
0
100
AcDbBlockBegin
  2
block 214
 70
     0
 71
     0
 10
0.0
 20
0.0
 30
0.0
  3
block 214
  1

  0
POLYLINE
  5
6A2
330
69E
100
AcDbEntity
  8
cotas
370
     0
100
AcDb2dPolyline
 66
     1
 10
0.0
 20
0.0
 30
0.0
  0
VERTEX
  5
6A3
330
6A2
100
AcDbEntity
  8
cotas
370
     0
100
AcDbVertex
100
AcDb2dVertex
 10
13.1743896451439
 20
38.1730360147623
 30
0.0
  0
VERTEX
  5
6A4
330
6A2
100
AcDbEntity
  8
cotas
370
     0
100
AcDbVertex
100
AcDb2dVertex
 10
13.63551567584459
 20
38.1730360147623
 30
0.0
  0
VERTEX
  5
6A5
330
6A2
100
AcDbEntity
  8
cotas
370
     0
100
AcDbVertex
100
AcDb2dVertex
 10
13.40486653310712
 20
39.55693087118716
 30
0.0
  0
VERTEX
  5
6A6
330
6A2
100
AcDbEntity
  8
cotas
370
     0
100
AcDbVertex
100
AcDb2dVertex
 10
13.1743896451439
 20
38.1730360147623
 30
0.0
  0
SEQEND
  5
6A7
330
6A2
100
AcDbEntity
  8
cotas
370
     0
  0
HATCH
  5
6A8
330
69E
100
AcDbEntity
  8
cotas
 62
   253
420
 11382189
100
AcDbHatch
 10
0.0
 20
0.0
 30
0.0
210
0.0
220
0.0
230
1.0
  2
SOLID
 70
     1
 71
     0
 91
        1
 92
        1
 93
        3
 72
     1
 10
13.1743896451439
 20
38.1730360147623
 11
13.63551567584459
 21
38.1730360147623
 72
     1
 10
13.63551567584459
 20
38.1730360147623
 11
13.40486653310712
 21
39.55693087118716
 72
     1
 10
13.40486653310712
 20
39.55693087118716
 11
13.1743896451439
 21
38.1730360147623
 97
        0
 75
     2
 76
     1
 98
        0
  0
ENDBLK
  5
6A1
330
69E
100
AcDbEntity
  8
0
100
AcDbBlockEnd
  0
BLOCK
  5
6AB
330
6A9
100
AcDbEntity
  8
0
100
AcDbBlockBegin
  2
block 215
 70
     0
 71
     0
 10
0.0
 20
0.0
 30
0.0
  3
block 215
  1

  0
POLYLINE
  5
6AD
330
6A9
100
AcDbEntity
  8
cotas
370
     0
100
AcDb2dPolyline
 66
     1
 10
0.0
 20
0.0
 30
0.0
  0
VERTEX
  5
6AE
330
6AD
100
AcDbEntity
  8
cotas
370
     0
100
AcDbVertex
100
AcDb2dVertex
 10
13.1743896451439
 20
17.91449652329915
 30
0.0
  0
VERTEX
  5
6AF
330
6AD
100
AcDbEntity
  8
cotas
370
     0
100
AcDbVertex
100
AcDb2dVertex
 10
13.63551567584459
 20
17.91449652329915
 30
0.0
  0
VERTEX
  5
6B0
330
6AD
100
AcDbEntity
  8
cotas
370
     0
100
AcDbVertex
100
AcDb2dVertex
 10
13.40486653310712
 20
16.53094617642282
 30
0.0
  0
VERTEX
  5
6B1
330
6AD
100
AcDbEntity
  8
cotas
370
     0
100
AcDbVertex
100
AcDb2dVertex
 10
13.1743896451439
 20
17.91449652329915
 30
0.0
  0
SEQEND
  5
6B2
330
6AD
100
AcDbEntity
  8
cotas
370
     0
  0
HATCH
  5
6B3
330
6A9
100
AcDbEntity
  8
cotas
 62
   253
420
 11382189
100
AcDbHatch
 10
0.0
 20
0.0
 30
0.0
210
0.0
220
0.0
230
1.0
  2
SOLID
 70
     1
 71
     0
 91
        1
 92
        1
 93
        3
 72
     1
 10
13.1743896451439
 20
17.91449652329915
 11
13.63551567584459
 21
17.91449652329915
 72
     1
 10
13.63551567584459
 20
17.91449652329915
 11
13.40486653310712
 21
16.53094617642282
 72
     1
 10
13.40486653310712
 20
16.53094617642282
 11
13.1743896451439
 21
17.91449652329915
 97
        0
 75
     2
 76
     1
 98
        0
  0
ENDBLK
  5
6AC
330
6A9
100
AcDbEntity
  8
0
100
AcDbBlockEnd
  0
BLOCK
  5
6B6
330
6B4
100
AcDbEntity
  8
0
100
AcDbBlockBegin
  2
block 216
 70
     0
 71
     0
 10
0.0
 20
0.0
 30
0.0
  3
block 216
  1

  0
MTEXT
  5
6B8
330
6B4
100
AcDbEntity
  8
cotas
 62
   253
420
 11382189
100
AcDbMText
 10
9.94943576140153
 20
26.58097872599365
 30
0.0
 40
2.964760974778626
 41
0.0
 71
     7
 72
     1
  1
\fArial|b0|i0|c0|p34;\W1;395
 73
     1
 44
1.0
  0
ENDBLK
  5
6B7
330
6B4
100
AcDbEntity
  8
0
100
AcDbBlockEnd
  0
BLOCK
  5
6BB
330
6B9
100
AcDbEntity
  8
0
100
AcDbBlockBegin
  2
block 217
 70
     0
 71
     0
 10
0.0
 20
0.0
 30
0.0
  3
block 217
  1

  0
POLYLINE
  5
6BD
330
6B9
100
AcDbEntity
  8
cotas
 62
   253
420
 11382189
370
    25
100
AcDb2dPolyline
 66
     1
 10
0.0
 20
0.0
 30
0.0
  0
VERTEX
  5
6BE
330
6BD
100
AcDbEntity
  8
cotas
 62
   253
420
 11382189
370
    25
100
AcDbVertex
100
AcDb2dVertex
 10
22.07496608606112
 20
39.55693087118716
 30
0.0
  0
VERTEX
  5
6BF
330
6BD
100
AcDbEntity
  8
cotas
 62
   253
420
 11382189
370
    25
100
AcDbVertex
100
AcDb2dVertex
 10
22.07496608606112
 20
39.55693087118716
 30
0.0
  0
SEQEND
  5
6C0
330
6BD
100
AcDbEntity
  8
cotas
370
    25
  0
ENDBLK
  5
6BC
330
6B9
100
AcDbEntity
  8
0
100
AcDbBlockEnd
  0
BLOCK
  5
6C3
330
6C1
100
AcDbEntity
  8
0
100
AcDbBlockBegin
  2
block 218
 70
     0
 71
     0
 10
0.0
 20
0.0
 30
0.0
  3
block 218
  1

  0
POLYLINE
  5
6C5
330
6C1
100
AcDbEntity
  8
cotas
 62
   253
420
 11382189
370
    25
100
AcDb2dPolyline
 66
     1
 10
0.0
 20
0.0
 30
0.0
  0
VERTEX
  5
6C6
330
6C5
100
AcDbEntity
  8
cotas
 62
   253
420
 11382189
370
    25
100
AcDbVertex
100
AcDb2dVertex
 10
26.7396253730894
 20
16.53094617642282
 30
0.0
  0
VERTEX
  5
6C7
330
6C5
100
AcDbEntity
  8
cotas
 62
   253
420
 11382189
370
    25
100
AcDbVertex
100
AcDb2dVertex
 10
26.7396253730894
 20
16.53094617642282
 30
0.0
  0
SEQEND
  5
6C8
330
6C5
100
AcDbEntity
  8
cotas
370
    25
  0
ENDBLK
  5
6C4
330
6C1
100
AcDbEntity
  8
0
100
AcDbBlockEnd
  0
BLOCK
  5
6CB
330
6C9
100
AcDbEntity
  8
0
100
AcDbBlockBegin
  2
block 219
 70
     0
 71
     0
 10
0.0
 20
0.0
 30
0.0
  3
block 219
  1

  0
POLYLINE
  5
6CD
330
6C9
100
AcDbEntity
  8
cotas
 62
   253
420
 11382189
370
    25
100
AcDb2dPolyline
 66
     1
 10
0.0
 20
0.0
 30
0.0
  0
VERTEX
  5
6CE
330
6CD
100
AcDbEntity
  8
cotas
 62
   253
420
 11382189
370
    25
100
AcDbVertex
100
AcDb2dVertex
 10
13.40486653310712
 20
16.53094617642282
 30
0.0
  0
VERTEX
  5
6CF
330
6CD
100
AcDbEntity
  8
cotas
 62
   253
420
 11382189
370
    25
100
AcDbVertex
100
AcDb2dVertex
 10
13.40486653310712
 20
16.53094617642282
 30
0.0
  0
SEQEND
  5
6D0
330
6CD
100
AcDbEntity
  8
cotas
370
    25
  0
ENDBLK
  5
6CC
330
6C9
100
AcDbEntity
  8
0
100
AcDbBlockEnd
  0
BLOCK
  5
6D3
330
6D1
100
AcDbEntity
  8
0
100
AcDbBlockBegin
  2
block 220
 70
     0
 71
     0
 10
0.0
 20
0.0
 30
0.0
  3
block 220
  1

  0
POLYLINE
  5
6D5
330
6D1
100
AcDbEntity
  8
cotas
  6
AI-Linetype-1
 62
   253
420
 11382189
370
    25
100
AcDb2dPolyline
 66
     1
 10
0.0
 20
0.0
 30
0.0
  0
VERTEX
  5
6D6
330
6D5
100
AcDbEntity
  8
cotas
  6
AI-Linetype-1
 62
   253
420
 11382189
370
    25
100
AcDbVertex
100
AcDb2dVertex
 10
24.26897514584248
 20
39.55693087118716
 30
0.0
  0
VERTEX
  5
6D7
330
6D5
100
AcDbEntity
  8
cotas
  6
AI-Linetype-1
 62
   253
420
 11382189
370
    25
100
AcDbVertex
100
AcDb2dVertex
 10
24.26897514584248
 20
35.23884818997501
 30
0.0
  0
SEQEND
  5
6D8
330
6D5
100
AcDbEntity
  8
cotas
  6
AI-Linetype-1
370
    25
  0
ENDBLK
  5
6D4
330
6D1
100
AcDbEntity
  8
0
100
AcDbBlockEnd
  0
BLOCK
  5
6DC
330
6DA
100
AcDbEntity
  8
0
100
AcDbBlockBegin
  2
block 221
 70
     0
 71
     0
 10
0.0
 20
0.0
 30
0.0
  3
block 221
  1

  0
POLYLINE
  5
6DE
330
6DA
100
AcDbEntity
  8
cotas
  6
AI-Linetype-2
 62
   253
420
 11382189
370
    25
100
AcDb2dPolyline
 66
     1
 10
0.0
 20
0.0
 30
0.0
  0
VERTEX
  5
6DF
330
6DE
100
AcDbEntity
  8
cotas
  6
AI-Linetype-2
 62
   253
420
 11382189
370
    25
100
AcDbVertex
100
AcDb2dVertex
 10
24.26897514584248
 20
32.96577418880717
 30
0.0
  0
VERTEX
  5
6E0
330
6DE
100
AcDbEntity
  8
cotas
  6
AI-Linetype-2
 62
   253
420
 11382189
370
    25
100
AcDbVertex
100
AcDb2dVertex
 10
24.26897514584248
 20
29.97060817393096
 30
0.0
  0
SEQEND
  5
6E1
330
6DE
100
AcDbEntity
  8
cotas
  6
AI-Linetype-2
370
    25
  0
ENDBLK
  5
6DD
330
6DA
100
AcDbEntity
  8
0
100
AcDbBlockEnd
  0
BLOCK
  5
6E5
330
6E3
100
AcDbEntity
  8
0
100
AcDbBlockBegin
  2
block 222
 70
     0
 71
     0
 10
0.0
 20
0.0
 30
0.0
  3
block 222
  1

  0
POLYLINE
  5
6E7
330
6E3
100
AcDbEntity
  8
cotas
  6
AI-Linetype-3
 62
   253
420
 11382189
370
    25
100
AcDb2dPolyline
 66
     1
 10
0.0
 20
0.0
 30
0.0
  0
VERTEX
  5
6E8
330
6E7
100
AcDbEntity
  8
cotas
  6
AI-Linetype-3
 62
   253
420
 11382189
370
    25
100
AcDbVertex
100
AcDb2dVertex
 10
29.70430229292115
 20
39.55693087118716
 30
0.0
  0
VERTEX
  5
6E9
330
6E7
100
AcDbEntity
  8
cotas
  6
AI-Linetype-3
 62
   253
420
 11382189
370
    25
100
AcDbVertex
100
AcDb2dVertex
 10
29.70430229292115
 20
35.23884818997501
 30
0.0
  0
SEQEND
  5
6EA
330
6E7
100
AcDbEntity
  8
cotas
  6
AI-Linetype-3
370
    25
  0
ENDBLK
  5
6E6
330
6E3
100
AcDbEntity
  8
0
100
AcDbBlockEnd
  0
BLOCK
  5
6EE
330
6EC
100
AcDbEntity
  8
0
100
AcDbBlockBegin
  2
block 223
 70
     0
 71
     0
 10
0.0
 20
0.0
 30
0.0
  3
block 223
  1

  0
POLYLINE
  5
6F0
330
6EC
100
AcDbEntity
  8
cotas
  6
AI-Linetype-4
 62
   253
420
 11382189
370
    25
100
AcDb2dPolyline
 66
     1
 10
0.0
 20
0.0
 30
0.0
  0
VERTEX
  5
6F1
330
6F0
100
AcDbEntity
  8
cotas
  6
AI-Linetype-4
 62
   253
420
 11382189
370
    25
100
AcDbVertex
100
AcDb2dVertex
 10
29.70430229292115
 20
32.96784124609832
 30
0.0
  0
VERTEX
  5
6F2
330
6F0
100
AcDbEntity
  8
cotas
  6
AI-Linetype-4
 62
   253
420
 11382189
370
    25
100
AcDbVertex
100
AcDb2dVertex
 10
29.70430229292115
 20
29.97060817393096
 30
0.0
  0
SEQEND
  5
6F3
330
6F0
100
AcDbEntity
  8
cotas
  6
AI-Linetype-4
370
    25
  0
ENDBLK
  5
6EF
330
6EC
100
AcDbEntity
  8
0
100
AcDbBlockEnd
  0
BLOCK
  5
6F7
330
6F5
100
AcDbEntity
  8
0
100
AcDbBlockBegin
  2
block 224
 70
     0
 71
     0
 10
0.0
 20
0.0
 30
0.0
  3
block 224
  1

  0
INSERT
  5
6FA
330
6F5
100
AcDbEntity
  8
cotas
100
AcDbBlockReference
  2
block 225
 10
0.0
 20
0.0
 30
0.0
  0
INSERT
  5
702
330
6F5
100
AcDbEntity
  8
cotas
100
AcDbBlockReference
  2
block 226
 10
0.0
 20
0.0
 30
0.0
  0
INSERT
  5
70A
330
6F5
100
AcDbEntity
  8
cotas
100
AcDbBlockReference
  2
block 227
 10
0.0
 20
0.0
 30
0.0
  0
INSERT
  5
712
330
6F5
100
AcDbEntity
  8
cotas
100
AcDbBlockReference
  2
block 228
 10
0.0
 20
0.0
 30
0.0
  0
INSERT
  5
71A
330
6F5
100
AcDbEntity
  8
cotas
100
AcDbBlockReference
  2
block 229
 10
0.0
 20
0.0
 30
0.0
  0
INSERT
  5
722
330
6F5
100
AcDbEntity
  8
cotas
100
AcDbBlockReference
  2
block 230
 10
0.0
 20
0.0
 30
0.0
  0
INSERT
  5
72D
330
6F5
100
AcDbEntity
  8
cotas
100
AcDbBlockReference
  2
block 231
 10
0.0
 20
0.0
 30
0.0
  0
INSERT
  5
738
330
6F5
100
AcDbEntity
  8
cotas
100
AcDbBlockReference
  2
block 232
 10
0.0
 20
0.0
 30
0.0
  0
INSERT
  5
73D
330
6F5
100
AcDbEntity
  8
cotas
100
AcDbBlockReference
  2
block 233
 10
0.0
 20
0.0
 30
0.0
  0
INSERT
  5
745
330
6F5
100
AcDbEntity
  8
cotas
100
AcDbBlockReference
  2
block 234
 10
0.0
 20
0.0
 30
0.0
  0
INSERT
  5
74D
330
6F5
100
AcDbEntity
  8
cotas
100
AcDbBlockReference
  2
block 235
 10
0.0
 20
0.0
 30
0.0
  0
ENDBLK
  5
6F8
330
6F5
100
AcDbEntity
  8
0
100
AcDbBlockEnd
  0
BLOCK
  5
6FB
330
6F9
100
AcDbEntity
  8
0
100
AcDbBlockBegin
  2
block 225
 70
     0
 71
     0
 10
0.0
 20
0.0
 30
0.0
  3
block 225
  1

  0
POLYLINE
  5
6FD
330
6F9
100
AcDbEntity
  8
cotas
 62
   253
420
 11382189
370
    25
100
AcDb2dPolyline
 66
     1
 10
0.0
 20
0.0
 30
0.0
  0
VERTEX
  5
6FE
330
6FD
100
AcDbEntity
  8
cotas
 62
   253
420
 11382189
370
    25
100
AcDbVertex
100
AcDb2dVertex
 10
27.07190483264175
 20
14.55415038698646
 30
0.0
  0
VERTEX
  5
6FF
330
6FD
100
AcDbEntity
  8
cotas
 62
   253
420
 11382189
370
    25
100
AcDbVertex
100
AcDb2dVertex
 10
27.07190483264175
 20
12.07574869489773
 30
0.0
  0
SEQEND
  5
700
330
6FD
100
AcDbEntity
  8
cotas
370
    25
  0
ENDBLK
  5
6FC
330
6F9
100
AcDbEntity
  8
0
100
AcDbBlockEnd
  0
BLOCK
  5
703
330
701
100
AcDbEntity
  8
0
100
AcDbBlockBegin
  2
block 226
 70
     0
 71
     0
 10
0.0
 20
0.0
 30
0.0
  3
block 226
  1

  0
POLYLINE
  5
705
330
701
100
AcDbEntity
  8
cotas
 62
   253
420
 11382189
370
    25
100
AcDb2dPolyline
 66
     1
 10
0.0
 20
0.0
 30
0.0
  0
VERTEX
  5
706
330
705
100
AcDbEntity
  8
cotas
 62
   253
420
 11382189
370
    25
100
AcDbVertex
100
AcDb2dVertex
 10
29.70430229292115
 20
14.55415038698646
 30
0.0
  0
VERTEX
  5
707
330
705
100
AcDbEntity
  8
cotas
 62
   253
420
 11382189
370
    25
100
AcDbVertex
100
AcDb2dVertex
 10
29.70430229292115
 20
12.07574869489773
 30
0.0
  0
SEQEND
  5
708
330
705
100
AcDbEntity
  8
cotas
370
    25
  0
ENDBLK
  5
704
330
701
100
AcDbEntity
  8
0
100
AcDbBlockEnd
  0
BLOCK
  5
70B
330
709
100
AcDbEntity
  8
0
100
AcDbBlockBegin
  2
block 227
 70
     0
 71
     0
 10
0.0
 20
0.0
 30
0.0
  3
block 227
  1

  0
POLYLINE
  5
70D
330
709
100
AcDbEntity
  8
cotas
 62
   253
420
 11382189
370
    25
100
AcDb2dPolyline
 66
     1
 10
0.0
 20
0.0
 30
0.0
  0
VERTEX
  5
70E
330
70D
100
AcDbEntity
  8
cotas
 62
   253
420
 11382189
370
    25
100
AcDbVertex
100
AcDb2dVertex
 10
25.68835448576541
 20
13.06414658961591
 30
0.0
  0
VERTEX
  5
70F
330
70D
100
AcDbEntity
  8
cotas
 62
   253
420
 11382189
370
    25
100
AcDbVertex
100
AcDb2dVertex
 10
24.30480413888908
 20
13.06414658961591
 30
0.0
  0
SEQEND
  5
710
330
70D
100
AcDbEntity
  8
cotas
370
    25
  0
ENDBLK
  5
70C
330
709
100
AcDbEntity
  8
0
100
AcDbBlockEnd
  0
BLOCK
  5
713
330
711
100
AcDbEntity
  8
0
100
AcDbBlockBegin
  2
block 228
 70
     0
 71
     0
 10
0.0
 20
0.0
 30
0.0
  3
block 228
  1

  0
POLYLINE
  5
715
330
711
100
AcDbEntity
  8
cotas
 62
   253
420
 11382189
370
    25
100
AcDb2dPolyline
 66
     1
 10
0.0
 20
0.0
 30
0.0
  0
VERTEX
  5
716
330
715
100
AcDbEntity
  8
cotas
 62
   253
420
 11382189
370
    25
100
AcDbVertex
100
AcDb2dVertex
 10
31.08768038502322
 20
13.06414658961591
 30
0.0
  0
VERTEX
  5
717
330
715
100
AcDbEntity
  8
cotas
 62
   253
420
 11382189
370
    25
100
AcDbVertex
100
AcDb2dVertex
 10
32.47140298667382
 20
13.06414658961591
 30
0.0
  0
SEQEND
  5
718
330
715
100
AcDbEntity
  8
cotas
370
    25
  0
ENDBLK
  5
714
330
711
100
AcDbEntity
  8
0
100
AcDbBlockEnd
  0
BLOCK
  5
71B
330
719
100
AcDbEntity
  8
0
100
AcDbBlockBegin
  2
block 229
 70
     0
 71
     0
 10
0.0
 20
0.0
 30
0.0
  3
block 229
  1

  0
POLYLINE
  5
71D
330
719
100
AcDbEntity
  8
cotas
 62
   253
420
 11382189
370
    25
100
AcDb2dPolyline
 66
     1
 10
0.0
 20
0.0
 30
0.0
  0
VERTEX
  5
71E
330
71D
100
AcDbEntity
  8
cotas
 62
   253
420
 11382189
370
    25
100
AcDbVertex
100
AcDb2dVertex
 10
27.07190483264175
 20
13.06414658961591
 30
0.0
  0
VERTEX
  5
71F
330
71D
100
AcDbEntity
  8
cotas
 62
   253
420
 11382189
370
    25
100
AcDbVertex
100
AcDb2dVertex
 10
29.70430229292115
 20
13.06414658961591
 30
0.0
  0
SEQEND
  5
720
330
71D
100
AcDbEntity
  8
cotas
370
    25
  0
ENDBLK
  5
71C
330
719
100
AcDbEntity
  8
0
100
AcDbBlockEnd
  0
BLOCK
  5
723
330
721
100
AcDbEntity
  8
0
100
AcDbBlockBegin
  2
block 230
 70
     0
 71
     0
 10
0.0
 20
0.0
 30
0.0
  3
block 230
  1

  0
POLYLINE
  5
725
330
721
100
AcDbEntity
  8
cotas
370
     0
100
AcDb2dPolyline
 66
     1
 10
0.0
 20
0.0
 30
0.0
  0
VERTEX
  5
726
330
725
100
AcDbEntity
  8
cotas
370
     0
100
AcDbVertex
100
AcDb2dVertex
 10
25.68835448576541
 20
13.29462347757912
 30
0.0
  0
VERTEX
  5
727
330
725
100
AcDbEntity
  8
cotas
370
     0
100
AcDbVertex
100
AcDb2dVertex
 10
25.68835448576541
 20
12.83332519210417
 30
0.0
  0
VERTEX
  5
728
330
725
100
AcDbEntity
  8
cotas
370
     0
100
AcDbVertex
100
AcDb2dVertex
 10
27.07190483264175
 20
13.06414658961591
 30
0.0
  0
VERTEX
  5
729
330
725
100
AcDbEntity
  8
cotas
370
     0
100
AcDbVertex
100
AcDb2dVertex
 10
25.68835448576541
 20
13.29462347757912
 30
0.0
  0
SEQEND
  5
72A
330
725
100
AcDbEntity
  8
cotas
370
     0
  0
HATCH
  5
72B
330
721
100
AcDbEntity
  8
cotas
 62
   253
420
 11382189
100
AcDbHatch
 10
0.0
 20
0.0
 30
0.0
210
0.0
220
0.0
230
1.0
  2
SOLID
 70
     1
 71
     0
 91
        1
 92
        1
 93
        3
 72
     1
 10
25.68835448576541
 20
13.29462347757912
 11
25.68835448576541
 21
12.83332519210417
 72
     1
 10
25.68835448576541
 20
12.83332519210417
 11
27.07190483264175
 21
13.06414658961591
 72
     1
 10
27.07190483264175
 20
13.06414658961591
 11
25.68835448576541
 21
13.29462347757912
 97
        0
 75
     2
 76
     1
 98
        0
  0
ENDBLK
  5
724
330
721
100
AcDbEntity
  8
0
100
AcDbBlockEnd
  0
BLOCK
  5
72E
330
72C
100
AcDbEntity
  8
0
100
AcDbBlockBegin
  2
block 231
 70
     0
 71
     0
 10
0.0
 20
0.0
 30
0.0
  3
block 231
  1

  0
POLYLINE
  5
730
330
72C
100
AcDbEntity
  8
cotas
370
     0
100
AcDb2dPolyline
 66
     1
 10
0.0
 20
0.0
 30
0.0
  0
VERTEX
  5
731
330
730
100
AcDbEntity
  8
cotas
370
     0
100
AcDbVertex
100
AcDb2dVertex
 10
31.08768038502322
 20
13.29462347757912
 30
0.0
  0
VERTEX
  5
732
330
730
100
AcDbEntity
  8
cotas
370
     0
100
AcDbVertex
100
AcDb2dVertex
 10
31.08768038502322
 20
12.83332519210417
 30
0.0
  0
VERTEX
  5
733
330
730
100
AcDbEntity
  8
cotas
370
     0
100
AcDbVertex
100
AcDb2dVertex
 10
29.70430229292115
 20
13.06414658961591
 30
0.0
  0
VERTEX
  5
734
330
730
100
AcDbEntity
  8
cotas
370
     0
100
AcDbVertex
100
AcDb2dVertex
 10
31.08768038502322
 20
13.29462347757912
 30
0.0
  0
SEQEND
  5
735
330
730
100
AcDbEntity
  8
cotas
370
     0
  0
HATCH
  5
736
330
72C
100
AcDbEntity
  8
cotas
 62
   253
420
 11382189
100
AcDbHatch
 10
0.0
 20
0.0
 30
0.0
210
0.0
220
0.0
230
1.0
  2
SOLID
 70
     1
 71
     0
 91
        1
 92
        1
 93
        3
 72
     1
 10
31.08768038502322
 20
13.29462347757912
 11
31.08768038502322
 21
12.83332519210417
 72
     1
 10
31.08768038502322
 20
12.83332519210417
 11
29.70430229292115
 21
13.06414658961591
 72
     1
 10
29.70430229292115
 20
13.06414658961591
 11
31.08768038502322
 21
13.29462347757912
 97
        0
 75
     2
 76
     1
 98
        0
  0
ENDBLK
  5
72F
330
72C
100
AcDbEntity
  8
0
100
AcDbBlockEnd
  0
BLOCK
  5
739
330
737
100
AcDbEntity
  8
0
100
AcDbBlockBegin
  2
block 232
 70
     0
 71
     0
 10
0.0
 20
0.0
 30
0.0
  3
block 232
  1

  0
MTEXT
  5
73B
330
737
100
AcDbEntity
  8
cotas
 62
   253
420
 11382189
100
AcDbMText
 10
35.70118000409554
 20
11.58344455005553
 30
0.0
 40
2.964760974778626
 41
0.0
 71
     7
 72
     1
  1
\fArial|b0|i0|c0|p34;\W1;R3/8"
 73
     1
 44
1.0
  0
ENDBLK
  5
73A
330
737
100
AcDbEntity
  8
0
100
AcDbBlockEnd
  0
BLOCK
  5
73E
330
73C
100
AcDbEntity
  8
0
100
AcDbBlockBegin
  2
block 233
 70
     0
 71
     0
 10
0.0
 20
0.0
 30
0.0
  3
block 233
  1

  0
POLYLINE
  5
740
330
73C
100
AcDbEntity
  8
cotas
 62
   253
420
 11382189
370
    25
100
AcDb2dPolyline
 66
     1
 10
0.0
 20
0.0
 30
0.0
  0
VERTEX
  5
741
330
740
100
AcDbEntity
  8
cotas
 62
   253
420
 11382189
370
    25
100
AcDbVertex
100
AcDb2dVertex
 10
27.07190483264175
 20
16.53094617642282
 30
0.0
  0
VERTEX
  5
742
330
740
100
AcDbEntity
  8
cotas
 62
   253
420
 11382189
370
    25
100
AcDbVertex
100
AcDb2dVertex
 10
27.07190483264175
 20
16.53094617642282
 30
0.0
  0
SEQEND
  5
743
330
740
100
AcDbEntity
  8
cotas
370
    25
  0
ENDBLK
  5
73F
330
73C
100
AcDbEntity
  8
0
100
AcDbBlockEnd
  0
BLOCK
  5
746
330
744
100
AcDbEntity
  8
0
100
AcDbBlockBegin
  2
block 234
 70
     0
 71
     0
 10
0.0
 20
0.0
 30
0.0
  3
block 234
  1

  0
POLYLINE
  5
748
330
744
100
AcDbEntity
  8
cotas
 62
   253
420
 11382189
370
    25
100
AcDb2dPolyline
 66
     1
 10
0.0
 20
0.0
 30
0.0
  0
VERTEX
  5
749
330
748
100
AcDbEntity
  8
cotas
 62
   253
420
 11382189
370
    25
100
AcDbVertex
100
AcDb2dVertex
 10
29.70430229292115
 20
16.53094617642282
 30
0.0
  0
VERTEX
  5
74A
330
748
100
AcDbEntity
  8
cotas
 62
   253
420
 11382189
370
    25
100
AcDbVertex
100
AcDb2dVertex
 10
29.70430229292115
 20
16.53094617642282
 30
0.0
  0
SEQEND
  5
74B
330
748
100
AcDbEntity
  8
cotas
370
    25
  0
ENDBLK
  5
747
330
744
100
AcDbEntity
  8
0
100
AcDbBlockEnd
  0
BLOCK
  5
74E
330
74C
100
AcDbEntity
  8
0
100
AcDbBlockBegin
  2
block 235
 70
     0
 71
     0
 10
0.0
 20
0.0
 30
0.0
  3
block 235
  1

  0
POLYLINE
  5
750
330
74C
100
AcDbEntity
  8
cotas
 62
   253
420
 11382189
370
    25
100
AcDb2dPolyline
 66
     1
 10
0.0
 20
0.0
 30
0.0
  0
VERTEX
  5
751
330
750
100
AcDbEntity
  8
cotas
 62
   253
420
 11382189
370
    25
100
AcDbVertex
100
AcDb2dVertex
 10
29.70430229292115
 20
13.06414658961591
 30
0.0
  0
VERTEX
  5
752
330
750
100
AcDbEntity
  8
cotas
 62
   253
420
 11382189
370
    25
100
AcDbVertex
100
AcDb2dVertex
 10
29.70430229292115
 20
13.06414658961591
 30
0.0
  0
SEQEND
  5
753
330
750
100
AcDbEntity
  8
cotas
370
    25
  0
ENDBLK
  5
74F
330
74C
100
AcDbEntity
  8
0
100
AcDbBlockEnd
  0
ENDSEC
  0
SECTION
  2
ENTITIES
  0
INSERT
  5
3D
330
1F
100
AcDbEntity
  8
cuerpo
100
AcDbBlockReference
  2
block 2
 10
0.0
 20
0.0
 30
0.0
  0
INSERT
  5
45
330
1F
100
AcDbEntity
  8
cuerpo
100
AcDbBlockReference
  2
block 3
 10
0.0
 20
0.0
 30
0.0
  0
INSERT
  5
4D
330
1F
100
AcDbEntity
  8
cuerpo
100
AcDbBlockReference
  2
block 4
 10
0.0
 20
0.0
 30
0.0
  0
INSERT
  5
55
330
1F
100
AcDbEntity
  8
cuerpo
100
AcDbBlockReference
  2
block 5
 10
0.0
 20
0.0
 30
0.0
  0
INSERT
  5
5D
330
1F
100
AcDbEntity
  8
cuerpo
100
AcDbBlockReference
  2
block 6
 10
0.0
 20
0.0
 30
0.0
  0
INSERT
  5
65
330
1F
100
AcDbEntity
  8
cuerpo
100
AcDbBlockReference
  2
block 7
 10
0.0
 20
0.0
 30
0.0
  0
INSERT
  5
6D
330
1F
100
AcDbEntity
  8
cuerpo
100
AcDbBlockReference
  2
block 8
 10
0.0
 20
0.0
 30
0.0
  0
INSERT
  5
75
330
1F
100
AcDbEntity
  8
cuerpo
100
AcDbBlockReference
  2
block 9
 10
0.0
 20
0.0
 30
0.0
  0
INSERT
  5
7D
330
1F
100
AcDbEntity
  8
cuerpo
100
AcDbBlockReference
  2
block 10
 10
0.0
 20
0.0
 30
0.0
  0
INSERT
  5
85
330
1F
100
AcDbEntity
  8
cuerpo
100
AcDbBlockReference
  2
block 11
 10
0.0
 20
0.0
 30
0.0
  0
INSERT
  5
8D
330
1F
100
AcDbEntity
  8
cuerpo
100
AcDbBlockReference
  2
block 12
 10
0.0
 20
0.0
 30
0.0
  0
INSERT
  5
95
330
1F
100
AcDbEntity
  8
cuerpo
100
AcDbBlockReference
  2
block 13
 10
0.0
 20
0.0
 30
0.0
  0
INSERT
  5
9D
330
1F
100
AcDbEntity
  8
cuerpo
100
AcDbBlockReference
  2
block 14
 10
0.0
 20
0.0
 30
0.0
  0
INSERT
  5
A5
330
1F
100
AcDbEntity
  8
cuerpo
100
AcDbBlockReference
  2
block 15
 10
0.0
 20
0.0
 30
0.0
  0
INSERT
  5
AD
330
1F
100
AcDbEntity
  8
cuerpo
100
AcDbBlockReference
  2
block 16
 10
0.0
 20
0.0
 30
0.0
  0
INSERT
  5
B5
330
1F
100
AcDbEntity
  8
cuerpo
100
AcDbBlockReference
  2
block 17
 10
0.0
 20
0.0
 30
0.0
  0
INSERT
  5
BD
330
1F
100
AcDbEntity
  8
cuerpo
100
AcDbBlockReference
  2
block 18
 10
0.0
 20
0.0
 30
0.0
  0
INSERT
  5
C5
330
1F
100
AcDbEntity
  8
cuerpo
100
AcDbBlockReference
  2
block 19
 10
0.0
 20
0.0
 30
0.0
  0
INSERT
  5
CD
330
1F
100
AcDbEntity
  8
cuerpo
100
AcDbBlockReference
  2
block 20
 10
0.0
 20
0.0
 30
0.0
  0
INSERT
  5
D5
330
1F
100
AcDbEntity
  8
cuerpo
100
AcDbBlockReference
  2
block 21
 10
0.0
 20
0.0
 30
0.0
  0
INSERT
  5
DD
330
1F
100
AcDbEntity
  8
cuerpo
100
AcDbBlockReference
  2
block 22
 10
0.0
 20
0.0
 30
0.0
  0
INSERT
  5
E5
330
1F
100
AcDbEntity
  8
cuerpo
100
AcDbBlockReference
  2
block 23
 10
0.0
 20
0.0
 30
0.0
  0
INSERT
  5
EC
330
1F
100
AcDbEntity
  8
cuerpo
100
AcDbBlockReference
  2
block 24
 10
0.0
 20
0.0
 30
0.0
  0
INSERT
  5
F4
330
1F
100
AcDbEntity
  8
cuerpo
100
AcDbBlockReference
  2
block 25
 10
0.0
 20
0.0
 30
0.0
  0
INSERT
  5
FC
330
1F
100
AcDbEntity
  8
cuerpo
100
AcDbBlockReference
  2
block 26
 10
0.0
 20
0.0
 30
0.0
  0
INSERT
  5
104
330
1F
100
AcDbEntity
  8
cuerpo
100
AcDbBlockReference
  2
block 27
 10
0.0
 20
0.0
 30
0.0
  0
INSERT
  5
10C
330
1F
100
AcDbEntity
  8
cuerpo
100
AcDbBlockReference
  2
block 28
 10
0.0
 20
0.0
 30
0.0
  0
INSERT
  5
114
330
1F
100
AcDbEntity
  8
cuerpo
100
AcDbBlockReference
  2
block 29
 10
0.0
 20
0.0
 30
0.0
  0
INSERT
  5
11C
330
1F
100
AcDbEntity
  8
cuerpo
100
AcDbBlockReference
  2
block 30
 10
0.0
 20
0.0
 30
0.0
  0
INSERT
  5
123
330
1F
100
AcDbEntity
  8
cuerpo
100
AcDbBlockReference
  2
block 31
 10
0.0
 20
0.0
 30
0.0
  0
INSERT
  5
12B
330
1F
100
AcDbEntity
  8
cuerpo
100
AcDbBlockReference
  2
block 32
 10
0.0
 20
0.0
 30
0.0
  0
INSERT
  5
133
330
1F
100
AcDbEntity
  8
cuerpo
100
AcDbBlockReference
  2
block 33
 10
0.0
 20
0.0
 30
0.0
  0
INSERT
  5
13B
330
1F
100
AcDbEntity
  8
cuerpo
100
AcDbBlockReference
  2
block 34
 10
0.0
 20
0.0
 30
0.0
  0
INSERT
  5
143
330
1F
100
AcDbEntity
  8
cuerpo
100
AcDbBlockReference
  2
block 35
 10
0.0
 20
0.0
 30
0.0
  0
INSERT
  5
14B
330
1F
100
AcDbEntity
  8
cuerpo
100
AcDbBlockReference
  2
block 36
 10
0.0
 20
0.0
 30
0.0
  0
INSERT
  5
153
330
1F
100
AcDbEntity
  8
cuerpo
100
AcDbBlockReference
  2
block 37
 10
0.0
 20
0.0
 30
0.0
  0
INSERT
  5
15B
330
1F
100
AcDbEntity
  8
cuerpo
100
AcDbBlockReference
  2
block 38
 10
0.0
 20
0.0
 30
0.0
  0
INSERT
  5
160
330
1F
100
AcDbEntity
  8
cuerpo
100
AcDbBlockReference
  2
block 39
 10
0.0
 20
0.0
 30
0.0
  0
INSERT
  5
168
330
1F
100
AcDbEntity
  8
cuerpo
100
AcDbBlockReference
  2
block 40
 10
0.0
 20
0.0
 30
0.0
  0
INSERT
  5
16D
330
1F
100
AcDbEntity
  8
cuerpo
100
AcDbBlockReference
  2
block 41
 10
0.0
 20
0.0
 30
0.0
  0
INSERT
  5
172
330
1F
100
AcDbEntity
  8
cuerpo
100
AcDbBlockReference
  2
block 42
 10
0.0
 20
0.0
 30
0.0
  0
INSERT
  5
17A
330
1F
100
AcDbEntity
  8
cuerpo
100
AcDbBlockReference
  2
block 43
 10
0.0
 20
0.0
 30
0.0
  0
INSERT
  5
182
330
1F
100
AcDbEntity
  8
cuerpo
100
AcDbBlockReference
  2
block 44
 10
0.0
 20
0.0
 30
0.0
  0
INSERT
  5
18A
330
1F
100
AcDbEntity
  8
cuerpo
100
AcDbBlockReference
  2
block 45
 10
0.0
 20
0.0
 30
0.0
  0
INSERT
  5
192
330
1F
100
AcDbEntity
  8
cuerpo
100
AcDbBlockReference
  2
block 46
 10
0.0
 20
0.0
 30
0.0
  0
INSERT
  5
19A
330
1F
100
AcDbEntity
  8
cuerpo
100
AcDbBlockReference
  2
block 47
 10
0.0
 20
0.0
 30
0.0
  0
INSERT
  5
19F
330
1F
100
AcDbEntity
  8
cuerpo
100
AcDbBlockReference
  2
block 48
 10
0.0
 20
0.0
 30
0.0
  0
INSERT
  5
1A7
330
1F
100
AcDbEntity
  8
cuerpo
100
AcDbBlockReference
  2
block 49
 10
0.0
 20
0.0
 30
0.0
  0
INSERT
  5
1AF
330
1F
100
AcDbEntity
  8
cuerpo
100
AcDbBlockReference
  2
block 50
 10
0.0
 20
0.0
 30
0.0
  0
INSERT
  5
1B7
330
1F
100
AcDbEntity
  8
cuerpo
100
AcDbBlockReference
  2
block 51
 10
0.0
 20
0.0
 30
0.0
  0
INSERT
  5
1BF
330
1F
100
AcDbEntity
  8
cuerpo
100
AcDbBlockReference
  2
block 52
 10
0.0
 20
0.0
 30
0.0
  0
INSERT
  5
1C7
330
1F
100
AcDbEntity
  8
cuerpo
100
AcDbBlockReference
  2
block 53
 10
0.0
 20
0.0
 30
0.0
  0
INSERT
  5
1CF
330
1F
100
AcDbEntity
  8
cuerpo
100
AcDbBlockReference
  2
block 54
 10
0.0
 20
0.0
 30
0.0
  0
INSERT
  5
1D7
330
1F
100
AcDbEntity
  8
cuerpo
100
AcDbBlockReference
  2
block 55
 10
0.0
 20
0.0
 30
0.0
  0
INSERT
  5
1DF
330
1F
100
AcDbEntity
  8
cuerpo
100
AcDbBlockReference
  2
block 56
 10
0.0
 20
0.0
 30
0.0
  0
INSERT
  5
1E7
330
1F
100
AcDbEntity
  8
cuerpo
100
AcDbBlockReference
  2
block 57
 10
0.0
 20
0.0
 30
0.0
  0
INSERT
  5
1EF
330
1F
100
AcDbEntity
  8
cuerpo
100
AcDbBlockReference
  2
block 58
 10
0.0
 20
0.0
 30
0.0
  0
INSERT
  5
1F7
330
1F
100
AcDbEntity
  8
cuerpo
100
AcDbBlockReference
  2
block 59
 10
0.0
 20
0.0
 30
0.0
  0
INSERT
  5
1FC
330
1F
100
AcDbEntity
  8
cuerpo
100
AcDbBlockReference
  2
block 60
 10
0.0
 20
0.0
 30
0.0
  0
INSERT
  5
201
330
1F
100
AcDbEntity
  8
cuerpo
100
AcDbBlockReference
  2
block 61
 10
0.0
 20
0.0
 30
0.0
  0
INSERT
  5
209
330
1F
100
AcDbEntity
  8
cuerpo
100
AcDbBlockReference
  2
block 62
 10
0.0
 20
0.0
 30
0.0
  0
INSERT
  5
20E
330
1F
100
AcDbEntity
  8
cuerpo
100
AcDbBlockReference
  2
block 63
 10
0.0
 20
0.0
 30
0.0
  0
INSERT
  5
213
330
1F
100
AcDbEntity
  8
cuerpo
100
AcDbBlockReference
  2
block 64
 10
0.0
 20
0.0
 30
0.0
  0
INSERT
  5
218
330
1F
100
AcDbEntity
  8
cuerpo
100
AcDbBlockReference
  2
block 65
 10
0.0
 20
0.0
 30
0.0
  0
INSERT
  5
21D
330
1F
100
AcDbEntity
  8
cuerpo
100
AcDbBlockReference
  2
block 66
 10
0.0
 20
0.0
 30
0.0
  0
INSERT
  5
222
330
1F
100
AcDbEntity
  8
cuerpo
100
AcDbBlockReference
  2
block 67
 10
0.0
 20
0.0
 30
0.0
  0
INSERT
  5
227
330
1F
100
AcDbEntity
  8
cuerpo
100
AcDbBlockReference
  2
block 68
 10
0.0
 20
0.0
 30
0.0
  0
INSERT
  5
22C
330
1F
100
AcDbEntity
  8
cuerpo
100
AcDbBlockReference
  2
block 69
 10
0.0
 20
0.0
 30
0.0
  0
INSERT
  5
234
330
1F
100
AcDbEntity
  8
cuerpo
100
AcDbBlockReference
  2
block 70
 10
0.0
 20
0.0
 30
0.0
  0
INSERT
  5
239
330
1F
100
AcDbEntity
  8
cuerpo
100
AcDbBlockReference
  2
block 71
 10
0.0
 20
0.0
 30
0.0
  0
INSERT
  5
241
330
1F
100
AcDbEntity
  8
cuerpo
100
AcDbBlockReference
  2
block 72
 10
0.0
 20
0.0
 30
0.0
  0
INSERT
  5
249
330
1F
100
AcDbEntity
  8
cuerpo
100
AcDbBlockReference
  2
block 73
 10
0.0
 20
0.0
 30
0.0
  0
INSERT
  5
24E
330
1F
100
AcDbEntity
  8
cuerpo
100
AcDbBlockReference
  2
block 74
 10
0.0
 20
0.0
 30
0.0
  0
INSERT
  5
256
330
1F
100
AcDbEntity
  8
cuerpo
100
AcDbBlockReference
  2
block 75
 10
0.0
 20
0.0
 30
0.0
  0
INSERT
  5
25E
330
1F
100
AcDbEntity
  8
cuerpo
100
AcDbBlockReference
  2
block 76
 10
0.0
 20
0.0
 30
0.0
  0
INSERT
  5
266
330
1F
100
AcDbEntity
  8
cuerpo
100
AcDbBlockReference
  2
block 77
 10
0.0
 20
0.0
 30
0.0
  0
INSERT
  5
26E
330
1F
100
AcDbEntity
  8
cuerpo
100
AcDbBlockReference
  2
block 78
 10
0.0
 20
0.0
 30
0.0
  0
INSERT
  5
273
330
1F
100
AcDbEntity
  8
cuerpo
100
AcDbBlockReference
  2
block 79
 10
0.0
 20
0.0
 30
0.0
  0
INSERT
  5
27B
330
1F
100
AcDbEntity
  8
cuerpo
100
AcDbBlockReference
  2
block 80
 10
0.0
 20
0.0
 30
0.0
  0
INSERT
  5
283
330
1F
100
AcDbEntity
  8
cuerpo
100
AcDbBlockReference
  2
block 81
 10
0.0
 20
0.0
 30
0.0
  0
INSERT
  5
28B
330
1F
100
AcDbEntity
  8
cuerpo
100
AcDbBlockReference
  2
block 82
 10
0.0
 20
0.0
 30
0.0
  0
INSERT
  5
293
330
1F
100
AcDbEntity
  8
cuerpo
100
AcDbBlockReference
  2
block 83
 10
0.0
 20
0.0
 30
0.0
  0
INSERT
  5
29B
330
1F
100
AcDbEntity
  8
cuerpo
100
AcDbBlockReference
  2
block 84
 10
0.0
 20
0.0
 30
0.0
  0
INSERT
  5
2A3
330
1F
100
AcDbEntity
  8
cuerpo
100
AcDbBlockReference
  2
block 85
 10
0.0
 20
0.0
 30
0.0
  0
INSERT
  5
2AB
330
1F
100
AcDbEntity
  8
cuerpo
100
AcDbBlockReference
  2
block 86
 10
0.0
 20
0.0
 30
0.0
  0
INSERT
  5
2B3
330
1F
100
AcDbEntity
  8
cuerpo
100
AcDbBlockReference
  2
block 87
 10
0.0
 20
0.0
 30
0.0
  0
INSERT
  5
2BB
330
1F
100
AcDbEntity
  8
cuerpo
100
AcDbBlockReference
  2
block 88
 10
0.0
 20
0.0
 30
0.0
  0
INSERT
  5
2C3
330
1F
100
AcDbEntity
  8
cuerpo
100
AcDbBlockReference
  2
block 89
 10
0.0
 20
0.0
 30
0.0
  0
INSERT
  5
2CB
330
1F
100
AcDbEntity
  8
cuerpo
100
AcDbBlockReference
  2
block 90
 10
0.0
 20
0.0
 30
0.0
  0
INSERT
  5
2D3
330
1F
100
AcDbEntity
  8
cuerpo
100
AcDbBlockReference
  2
block 91
 10
0.0
 20
0.0
 30
0.0
  0
INSERT
  5
2D8
330
1F
100
AcDbEntity
  8
cuerpo
100
AcDbBlockReference
  2
block 92
 10
0.0
 20
0.0
 30
0.0
  0
INSERT
  5
2DD
330
1F
100
AcDbEntity
  8
cuerpo
100
AcDbBlockReference
  2
block 93
 10
0.0
 20
0.0
 30
0.0
  0
INSERT
  5
2E5
330
1F
100
AcDbEntity
  8
cuerpo
100
AcDbBlockReference
  2
block 94
 10
0.0
 20
0.0
 30
0.0
  0
INSERT
  5
2ED
330
1F
100
AcDbEntity
  8
cuerpo
100
AcDbBlockReference
  2
block 95
 10
0.0
 20
0.0
 30
0.0
  0
INSERT
  5
2F5
330
1F
100
AcDbEntity
  8
cuerpo
100
AcDbBlockReference
  2
block 96
 10
0.0
 20
0.0
 30
0.0
  0
INSERT
  5
2FA
330
1F
100
AcDbEntity
  8
cuerpo
100
AcDbBlockReference
  2
block 97
 10
0.0
 20
0.0
 30
0.0
  0
INSERT
  5
302
330
1F
100
AcDbEntity
  8
cuerpo
100
AcDbBlockReference
  2
block 98
 10
0.0
 20
0.0
 30
0.0
  0
INSERT
  5
30A
330
1F
100
AcDbEntity
  8
cuerpo
100
AcDbBlockReference
  2
block 99
 10
0.0
 20
0.0
 30
0.0
  0
INSERT
  5
312
330
1F
100
AcDbEntity
  8
cuerpo
100
AcDbBlockReference
  2
block 100
 10
0.0
 20
0.0
 30
0.0
  0
INSERT
  5
31A
330
1F
100
AcDbEntity
  8
cuerpo
100
AcDbBlockReference
  2
block 101
 10
0.0
 20
0.0
 30
0.0
  0
INSERT
  5
322
330
1F
100
AcDbEntity
  8
cuerpo
100
AcDbBlockReference
  2
block 102
 10
0.0
 20
0.0
 30
0.0
  0
INSERT
  5
327
330
1F
100
AcDbEntity
  8
cuerpo
100
AcDbBlockReference
  2
block 103
 10
0.0
 20
0.0
 30
0.0
  0
INSERT
  5
32C
330
1F
100
AcDbEntity
  8
cuerpo
100
AcDbBlockReference
  2
block 104
 10
0.0
 20
0.0
 30
0.0
  0
INSERT
  5
331
330
1F
100
AcDbEntity
  8
cuerpo
100
AcDbBlockReference
  2
block 105
 10
0.0
 20
0.0
 30
0.0
  0
INSERT
  5
336
330
1F
100
AcDbEntity
  8
cuerpo
100
AcDbBlockReference
  2
block 106
 10
0.0
 20
0.0
 30
0.0
  0
INSERT
  5
33E
330
1F
100
AcDbEntity
  8
cuerpo
100
AcDbBlockReference
  2
block 107
 10
0.0
 20
0.0
 30
0.0
  0
INSERT
  5
343
330
1F
100
AcDbEntity
  8
cuerpo
100
AcDbBlockReference
  2
block 108
 10
0.0
 20
0.0
 30
0.0
  0
INSERT
  5
34B
330
1F
100
AcDbEntity
  8
cuerpo
100
AcDbBlockReference
  2
block 109
 10
0.0
 20
0.0
 30
0.0
  0
INSERT
  5
353
330
1F
100
AcDbEntity
  8
cuerpo
100
AcDbBlockReference
  2
block 110
 10
0.0
 20
0.0
 30
0.0
  0
INSERT
  5
35B
330
1F
100
AcDbEntity
  8
cuerpo
100
AcDbBlockReference
  2
block 111
 10
0.0
 20
0.0
 30
0.0
  0
INSERT
  5
360
330
1F
100
AcDbEntity
  8
cuerpo
100
AcDbBlockReference
  2
block 112
 10
0.0
 20
0.0
 30
0.0
  0
INSERT
  5
365
330
1F
100
AcDbEntity
  8
cuerpo
100
AcDbBlockReference
  2
block 113
 10
0.0
 20
0.0
 30
0.0
  0
INSERT
  5
36D
330
1F
100
AcDbEntity
  8
cuerpo
100
AcDbBlockReference
  2
block 114
 10
0.0
 20
0.0
 30
0.0
  0
INSERT
  5
375
330
1F
100
AcDbEntity
  8
cuerpo
100
AcDbBlockReference
  2
block 115
 10
0.0
 20
0.0
 30
0.0
  0
INSERT
  5
37D
330
1F
100
AcDbEntity
  8
cuerpo
100
AcDbBlockReference
  2
block 116
 10
0.0
 20
0.0
 30
0.0
  0
INSERT
  5
385
330
1F
100
AcDbEntity
  8
cuerpo
100
AcDbBlockReference
  2
block 117
 10
0.0
 20
0.0
 30
0.0
  0
INSERT
  5
38D
330
1F
100
AcDbEntity
  8
cuerpo
100
AcDbBlockReference
  2
block 118
 10
0.0
 20
0.0
 30
0.0
  0
INSERT
  5
395
330
1F
100
AcDbEntity
  8
cuerpo
100
AcDbBlockReference
  2
block 119
 10
0.0
 20
0.0
 30
0.0
  0
INSERT
  5
39A
330
1F
100
AcDbEntity
  8
cuerpo
100
AcDbBlockReference
  2
block 120
 10
0.0
 20
0.0
 30
0.0
  0
INSERT
  5
3A2
330
1F
100
AcDbEntity
  8
cuerpo
100
AcDbBlockReference
  2
block 121
 10
0.0
 20
0.0
 30
0.0
  0
INSERT
  5
3A7
330
1F
100
AcDbEntity
  8
cuerpo
100
AcDbBlockReference
  2
block 122
 10
0.0
 20
0.0
 30
0.0
  0
INSERT
  5
3AF
330
1F
100
AcDbEntity
  8
cuerpo
100
AcDbBlockReference
  2
block 123
 10
0.0
 20
0.0
 30
0.0
  0
INSERT
  5
3B7
330
1F
100
AcDbEntity
  8
cuerpo
100
AcDbBlockReference
  2
block 124
 10
0.0
 20
0.0
 30
0.0
  0
INSERT
  5
3BF
330
1F
100
AcDbEntity
  8
cuerpo
100
AcDbBlockReference
  2
block 125
 10
0.0
 20
0.0
 30
0.0
  0
INSERT
  5
3C4
330
1F
100
AcDbEntity
  8
cuerpo
100
AcDbBlockReference
  2
block 126
 10
0.0
 20
0.0
 30
0.0
  0
INSERT
  5
3C9
330
1F
100
AcDbEntity
  8
cuerpo
100
AcDbBlockReference
  2
block 127
 10
0.0
 20
0.0
 30
0.0
  0
INSERT
  5
3CE
330
1F
100
AcDbEntity
  8
cuerpo
100
AcDbBlockReference
  2
block 128
 10
0.0
 20
0.0
 30
0.0
  0
INSERT
  5
3D6
330
1F
100
AcDbEntity
  8
cuerpo
100
AcDbBlockReference
  2
block 129
 10
0.0
 20
0.0
 30
0.0
  0
INSERT
  5
3DE
330
1F
100
AcDbEntity
  8
cuerpo
100
AcDbBlockReference
  2
block 130
 10
0.0
 20
0.0
 30
0.0
  0
INSERT
  5
3E3
330
1F
100
AcDbEntity
  8
cuerpo
100
AcDbBlockReference
  2
block 131
 10
0.0
 20
0.0
 30
0.0
  0
INSERT
  5
3EB
330
1F
100
AcDbEntity
  8
cuerpo
100
AcDbBlockReference
  2
block 132
 10
0.0
 20
0.0
 30
0.0
  0
INSERT
  5
3F3
330
1F
100
AcDbEntity
  8
cuerpo
100
AcDbBlockReference
  2
block 133
 10
0.0
 20
0.0
 30
0.0
  0
INSERT
  5
3F8
330
1F
100
AcDbEntity
  8
cuerpo
100
AcDbBlockReference
  2
block 134
 10
0.0
 20
0.0
 30
0.0
  0
INSERT
  5
400
330
1F
100
AcDbEntity
  8
cuerpo
100
AcDbBlockReference
  2
block 135
 10
0.0
 20
0.0
 30
0.0
  0
INSERT
  5
408
330
1F
100
AcDbEntity
  8
cuerpo
100
AcDbBlockReference
  2
block 136
 10
0.0
 20
0.0
 30
0.0
  0
INSERT
  5
410
330
1F
100
AcDbEntity
  8
cuerpo
100
AcDbBlockReference
  2
block 137
 10
0.0
 20
0.0
 30
0.0
  0
INSERT
  5
418
330
1F
100
AcDbEntity
  8
cuerpo
100
AcDbBlockReference
  2
block 138
 10
0.0
 20
0.0
 30
0.0
  0
INSERT
  5
420
330
1F
100
AcDbEntity
  8
cuerpo
100
AcDbBlockReference
  2
block 139
 10
0.0
 20
0.0
 30
0.0
  0
INSERT
  5
425
330
1F
100
AcDbEntity
  8
cuerpo
100
AcDbBlockReference
  2
block 140
 10
0.0
 20
0.0
 30
0.0
  0
INSERT
  5
42D
330
1F
100
AcDbEntity
  8
cuerpo
100
AcDbBlockReference
  2
block 141
 10
0.0
 20
0.0
 30
0.0
  0
INSERT
  5
435
330
1F
100
AcDbEntity
  8
cuerpo
100
AcDbBlockReference
  2
block 142
 10
0.0
 20
0.0
 30
0.0
  0
INSERT
  5
43D
330
1F
100
AcDbEntity
  8
cuerpo
100
AcDbBlockReference
  2
block 143
 10
0.0
 20
0.0
 30
0.0
  0
INSERT
  5
445
330
1F
100
AcDbEntity
  8
cuerpo
100
AcDbBlockReference
  2
block 144
 10
0.0
 20
0.0
 30
0.0
  0
INSERT
  5
44D
330
1F
100
AcDbEntity
  8
cuerpo
100
AcDbBlockReference
  2
block 145
 10
0.0
 20
0.0
 30
0.0
  0
INSERT
  5
452
330
1F
100
AcDbEntity
  8
cuerpo
100
AcDbBlockReference
  2
block 146
 10
0.0
 20
0.0
 30
0.0
  0
INSERT
  5
457
330
1F
100
AcDbEntity
  8
cuerpo
100
AcDbBlockReference
  2
block 147
 10
0.0
 20
0.0
 30
0.0
  0
INSERT
  5
45C
330
1F
100
AcDbEntity
  8
cuerpo
100
AcDbBlockReference
  2
block 148
 10
0.0
 20
0.0
 30
0.0
  0
INSERT
  5
465
330
1F
100
AcDbEntity
  8
cotas
100
AcDbBlockReference
  2
block 149
 10
0.0
 20
0.0
 30
0.0
  0
INSERT
  5
4AB
330
1F
100
AcDbEntity
  8
cotas
100
AcDbBlockReference
  2
block 150
 10
0.0
 20
0.0
 30
0.0
  0
INSERT
  5
502
330
1F
100
AcDbEntity
  8
cotas
100
AcDbBlockReference
  2
block 161
 10
0.0
 20
0.0
 30
0.0
  0
INSERT
  5
50A
330
1F
100
AcDbEntity
  8
cotas
100
AcDbBlockReference
  2
block 162
 10
0.0
 20
0.0
 30
0.0
  0
INSERT
  5
512
330
1F
100
AcDbEntity
  8
cotas
100
AcDbBlockReference
  2
block 163
 10
0.0
 20
0.0
 30
0.0
  0
INSERT
  5
56E
330
1F
100
AcDbEntity
  8
cotas
100
AcDbBlockReference
  2
block 175
 10
0.0
 20
0.0
 30
0.0
  0
INSERT
  5
5CD
330
1F
100
AcDbEntity
  8
cotas
100
AcDbBlockReference
  2
block 187
 10
0.0
 20
0.0
 30
0.0
  0
INSERT
  5
624
330
1F
100
AcDbEntity
  8
cotas
100
AcDbBlockReference
  2
block 198
 10
0.0
 20
0.0
 30
0.0
  0
INSERT
  5
67B
330
1F
100
AcDbEntity
  8
cotas
100
AcDbBlockReference
  2
block 209
 10
0.0
 20
0.0
 30
0.0
  0
INSERT
  5
6D2
330
1F
100
AcDbEntity
  8
cotas
100
AcDbBlockReference
  2
block 220
 10
0.0
 20
0.0
 30
0.0
  0
INSERT
  5
6DB
330
1F
100
AcDbEntity
  8
cotas
100
AcDbBlockReference
  2
block 221
 10
0.0
 20
0.0
 30
0.0
  0
INSERT
  5
6E4
330
1F
100
AcDbEntity
  8
cotas
100
AcDbBlockReference
  2
block 222
 10
0.0
 20
0.0
 30
0.0
  0
INSERT
  5
6ED
330
1F
100
AcDbEntity
  8
cotas
100
AcDbBlockReference
  2
block 223
 10
0.0
 20
0.0
 30
0.0
  0
INSERT
  5
6F6
330
1F
100
AcDbEntity
  8
cotas
100
AcDbBlockReference
  2
block 224
 10
0.0
 20
0.0
 30
0.0
  0
ENDSEC
  0
SECTION
  2
OBJECTS
  0
DICTIONARY
  5
C
330
0
100
AcDbDictionary
281
     1
  3
ACAD_GROUP
350
D
  3
ACAD_LAYOUT
350
1A
  3
ACAD_MLINESTYLE
350
17
  3
ACAD_PLOTSETTINGS
350
19
  3
ACAD_PLOTSTYLENAME
350
E
  3
ACAD_TABLESTYLE
350
756
  3
ACAD_VISUALSTYLE
350
2A
  0
DICTIONARY
  5
D
102
{ACAD_REACTORS
330
C
102
}
330
C
100
AcDbDictionary
281
     1
  0
DICTIONARY
  5
1A
102
{ACAD_REACTORS
330
C
102
}
330
C
100
AcDbDictionary
281
     1
  3
Layout1
350
1E
  3
Layout2
350
26
  3
Model
350
22
  0
DICTIONARY
  5
17
102
{ACAD_REACTORS
330
C
102
}
330
C
100
AcDbDictionary
281
     1
  3
Standard
350
18
  0
DICTIONARY
  5
19
102
{ACAD_REACTORS
330
C
102
}
330
C
100
AcDbDictionary
281
     1
  0
ACDBDICTIONARYWDFLT
  5
E
102
{ACAD_REACTORS
330
C
102
}
330
C
100
AcDbDictionary
281
     1
  3
Normal
350
F
100
AcDbDictionaryWithDefault
340
F
  0
DICTIONARY
  5
756
102
{ACAD_REACTORS
330
C
102
}
330
C
100
AcDbDictionary
281
     1
  0
DICTIONARY
  5
2A
102
{ACAD_REACTORS
330
C
102
}
330
C
100
AcDbDictionary
281
     1
  3
2dWireframe
350
2F
  3
3D Hidden
350
31
  3
3dWireframe
350
30
  3
Basic
350
32
  3
Brighten
350
36
  3
ColorChange
350
3A
  3
Conceptual
350
34
  3
Dim
350
35
  3
Facepattern
350
39
  3
Flat
350
2B
  3
FlatWithEdges
350
2C
  3
Gouraud
350
2D
  3
GouraudWithEdges
350
2E
  3
Linepattern
350
38
  3
Realistic
350
33
  3
Thicken
350
37
  0
LAYOUT
  5
1E
102
{ACAD_REACTORS
330
1A
102
}
330
1A
100
AcDbPlotSettings
  1

  2
none_device
  4

  6

 40
0.0
 41
0.0
 42
0.0
 43
0.0
 44
0.0
 45
0.0
 46
0.0
 47
0.0
 48
0.0
 49
0.0
140
0.0
141
0.0
142
1.0
143
1.0
 70
   688
 72
     0
 73
     0
 74
     5
  7

 75
    16
 76
     0
 77
     2
 78
   300
147
1.0
148
0.0
149
0.0
100
AcDbLayout
  1
Layout1
 70
     1
 71
     1
 10
0.0
 20
0.0
 11
12.0
 21
9.0
 12
0.0
 22
0.0
 32
0.0
 14
1.000000000000000E+20
 24
1.000000000000000E+20
 34
1.000000000000000E+20
 15
-1.000000000000000E+20
 25
-1.000000000000000E+20
 35
-1.000000000000000E+20
146
0.0
 13
0.0
 23
0.0
 33
0.0
 16
1.0
 26
0.0
 36
0.0
 17
0.0
 27
1.0
 37
0.0
 76
     0
330
1B
  0
LAYOUT
  5
26
102
{ACAD_REACTORS
330
1A
102
}
330
1A
100
AcDbPlotSettings
  1

  2
none_device
  4

  6

 40
0.0
 41
0.0
 42
0.0
 43
0.0
 44
0.0
 45
0.0
 46
0.0
 47
0.0
 48
0.0
 49
0.0
140
0.0
141
0.0
142
1.0
143
1.0
 70
   688
 72
     0
 73
     0
 74
     5
  7

 75
    16
 76
     0
 77
     2
 78
   300
147
1.0
148
0.0
149
0.0
100
AcDbLayout
  1
Layout2
 70
     1
 71
     2
 10
0.0
 20
0.0
 11
0.0
 21
0.0
 12
0.0
 22
0.0
 32
0.0
 14
0.0
 24
0.0
 34
0.0
 15
0.0
 25
0.0
 35
0.0
146
0.0
 13
0.0
 23
0.0
 33
0.0
 16
1.0
 26
0.0
 36
0.0
 17
0.0
 27
1.0
 37
0.0
 76
     0
330
23
  0
LAYOUT
  5
22
102
{ACAD_REACTORS
330
1A
102
}
330
1A
100
AcDbPlotSettings
  1

  2
none_device
  4

  6

 40
0.0
 41
0.0
 42
0.0
 43
0.0
 44
0.0
 45
0.0
 46
0.0
 47
0.0
 48
0.0
 49
0.0
140
0.0
141
0.0
142
1.0
143
1.0
 70
  1712
 72
     0
 73
     0
 74
     0
  7

 75
     0
 76
     0
 77
     2
 78
   300
147
1.0
148
0.0
149
0.0
100
AcDbLayout
  1
Model
 70
     1
 71
     0
 10
0.0
 20
0.0
 11
12.0
 21
9.0
 12
0.0
 22
0.0
 32
0.0
 14
1.000000000000000E+20
 24
1.000000000000000E+20
 34
1.000000000000000E+20
 15
-1.000000000000000E+20
 25
-1.000000000000000E+20
 35
-1.000000000000000E+20
146
0.0
 13
0.0
 23
0.0
 33
0.0
 16
1.0
 26
0.0
 36
0.0
 17
0.0
 27
1.0
 37
0.0
 76
     0
330
1F
331
29
  0
MLINESTYLE
  5
18
102
{ACAD_REACTORS
330
17
102
}
330
17
100
AcDbMlineStyle
  2
Standard
 70
     0
  3

 62
   256
 51
90.0
 52
90.0
 71
     2
 49
0.5
 62
   256
  6
BYLAYER
 49
-0.5
 62
   256
  6
BYLAYER
  0
ACDBPLACEHOLDER
  5
F
102
{ACAD_REACTORS
330
E
102
}
330
E
  0
VISUALSTYLE
  5
2F
102
{ACAD_REACTORS
330
2A
102
}
330
2A
100
AcDbVisualStyle
  2
2dWireframe
 70
     4
 71
     0
 72
     2
 73
     0
 90
        0
 40
-0.6
 41
-30.0
 62
     5
 63
     7
421
 16777215
 74
     1
 91
        4
 64
     7
 65
   257
 75
     1
175
     1
 42
1.0
 92
        0
 66
   257
 43
1.0
 76
     1
 77
     6
 78
     2
 67
     7
 79
     5
170
     0
171
     0
290
     0
174
     0
 93
        1
 44
0.0
173
     0
291
     0
 45
0.0
1001
ACAD
1000
AcDbSavedByObjectVersion
1070
     0
  0
VISUALSTYLE
  5
31
102
{ACAD_REACTORS
330
2A
102
}
330
2A
100
AcDbVisualStyle
  2
3D Hidden
 70
     6
 71
     1
 72
     2
 73
     2
 90
        0
 40
-0.6
 41
-30.0
 62
     5
 63
     7
421
 16777215
 74
     2
 91
        2
 64
     7
 65
   257
 75
     2
175
     1
 42
40.0
 92
        0
 66
   257
 43
1.0
 76
     1
 77
     6
 78
     2
 67
     7
 79
     3
170
     0
171
     0
290
     0
174
     0
 93
        1
 44
0.0
173
     0
291
     0
 45
0.0
1001
ACAD
1000
AcDbSavedByObjectVersion
1070
     0
  0
VISUALSTYLE
  5
30
102
{ACAD_REACTORS
330
2A
102
}
330
2A
100
AcDbVisualStyle
  2
3dWireframe
 70
     5
 71
     0
 72
     2
 73
     0
 90
        0
 40
-0.6
 41
-30.0
 62
     5
 63
     7
421
 16777215
 74
     1
 91
        4
 64
     7
 65
   257
 75
     1
175
     1
 42
1.0
 92
        0
 66
   257
 43
1.0
 76
     1
 77
     6
 78
     2
 67
     7
 79
     5
170
     0
171
     0
290
     0
174
     0
 93
        1
 44
0.0
173
     0
291
     0
 45
0.0
1001
ACAD
1000
AcDbSavedByObjectVersion
1070
     0
  0
VISUALSTYLE
  5
32
102
{ACAD_REACTORS
330
2A
102
}
330
2A
100
AcDbVisualStyle
  2
Basic
 70
     7
 71
     1
 72
     0
 73
     1
 90
        0
 40
-0.6
 41
-30.0
 62
     5
 63
     7
421
 16777215
 74
     0
 91
        4
 64
     7
 65
   257
 75
     1
175
     1
 42
1.0
 92
        8
 66
     7
 43
1.0
 76
     1
 77
     6
 78
     2
 67
     7
 79
     5
170
     0
171
     0
290
     0
174
     0
 93
        1
 44
0.0
173
     0
291
     1
 45
0.0
1001
ACAD
1000
AcDbSavedByObjectVersion
1070
     0
  0
VISUALSTYLE
  5
36
102
{ACAD_REACTORS
330
2A
102
}
330
2A
100
AcDbVisualStyle
  2
Brighten
 70
    12
 71
     2
 72
     2
 73
     0
 90
        0
 40
-0.6
 41
-30.0
 62
     5
 63
     7
421
 16777215
 74
     1
 91
        4
 64
     7
 65
   257
 75
     1
175
     1
 42
1.0
 92
        8
 66
     7
 43
1.0
 76
     1
 77
     6
 78
     2
 67
     7
 79
     5
170
     0
171
     0
290
     0
174
     0
 93
        1
 44
50.0
173
     0
291
     1
 45
0.0
1001
ACAD
1000
AcDbSavedByObjectVersion
1070
     0
  0
VISUALSTYLE
  5
3A
102
{ACAD_REACTORS
330
2A
102
}
330
2A
100
AcDbVisualStyle
  2
ColorChange
 70
    16
 71
     2
 72
     2
 73
     3
 90
        0
 40
-0.6
 41
-30.0
 62
     5
 63
     8
421
  8421504
 74
     1
 91
        4
 64
     7
 65
   257
 75
     1
175
     1
 42
1.0
 92
        8
 66
     8
424
  8421504
 43
1.0
 76
     1
 77
     6
 78
     2
 67
     7
 79
     5
170
     0
171
     0
290
     0
174
     0
 93
        1
 44
0.0
173
     0
291
     1
 45
0.0
1001
ACAD
1000
AcDbSavedByObjectVersion
1070
     0
  0
VISUALSTYLE
  5
34
102
{ACAD_REACTORS
330
2A
102
}
330
2A
100
AcDbVisualStyle
  2
Conceptual
 70
     9
 71
     3
 72
     2
 73
     0
 90
        0
 40
-0.6
 41
-30.0
 62
     5
 63
     7
421
 16777215
 74
     2
 91
        2
 64
     7
 65
   257
 75
     1
175
     1
 42
40.0
 92
        8
 66
     7
 43
1.0
 76
     1
 77
     6
 78
     2
 67
     7
 79
     3
170
     0
171
     0
290
     0
174
     0
 93
        1
 44
0.0
173
     0
291
     0
 45
0.0
1001
ACAD
1000
AcDbSavedByObjectVersion
1070
     0
  0
VISUALSTYLE
  5
35
102
{ACAD_REACTORS
330
2A
102
}
330
2A
100
AcDbVisualStyle
  2
Dim
 70
    11
 71
     2
 72
     2
 73
     0
 90
        0
 40
-0.6
 41
-30.0
 62
     5
 63
     7
421
 16777215
 74
     1
 91
        4
 64
     7
 65
   257
 75
     1
175
     1
 42
1.0
 92
        8
 66
     7
 43
1.0
 76
     1
 77
     6
 78
     2
 67
     7
 79
     5
170
     0
171
     0
290
     0
174
     0
 93
        1
 44
-50.0
173
     0
291
     1
 45
0.0
1001
ACAD
1000
AcDbSavedByObjectVersion
1070
     0
  0
VISUALSTYLE
  5
39
102
{ACAD_REACTORS
330
2A
102
}
330
2A
100
AcDbVisualStyle
  2
Facepattern
 70
    15
 71
     2
 72
     2
 73
     0
 90
        0
 40
-0.6
 41
-30.0
 62
     5
 63
     7
421
 16777215
 74
     1
 91
        4
 64
     7
 65
   257
 75
     1
175
     1
 42
1.0
 92
        8
 66
     7
 43
1.0
 76
     1
 77
     6
 78
     2
 67
     7
 79
     5
170
     0
171
     0
290
     0
174
     0
 93
        1
 44
0.0
173
     0
291
     1
 45
0.0
1001
ACAD
1000
AcDbSavedByObjectVersion
1070
     0
  0
VISUALSTYLE
  5
2B
102
{ACAD_REACTORS
330
2A
102
}
330
2A
100
AcDbVisualStyle
  2
Flat
 70
     0
 71
     2
 72
     1
 73
     1
 90
        2
 40
-0.6
 41
30.0
 62
     5
 63
     7
421
 16777215
 74
     0
 91
        4
 64
     7
 65
   257
 75
     1
175
     1
 42
1.0
 92
        8
 66
     7
 43
1.0
 76
     1
 77
     6
 78
     2
 67
     7
 79
     5
170
     0
171
     0
290
     0
174
     0
 93
       13
 44
0.0
173
     0
291
     1
 45
0.0
1001
ACAD
1000
AcDbSavedByObjectVersion
1070
     0
  0
VISUALSTYLE
  5
2C
102
{ACAD_REACTORS
330
2A
102
}
330
2A
100
AcDbVisualStyle
  2
FlatWithEdges
 70
     1
 71
     2
 72
     1
 73
     1
 90
        2
 40
-0.6
 41
30.0
 62
     5
 63
     7
421
 16777215
 74
     1
 91
        4
 64
     7
 65
   257
 75
     1
175
     1
 42
1.0
 92
        0
 66
   257
 43
1.0
 76
     1
 77
     6
 78
     2
 67
     7
 79
     5
170
     0
171
     0
290
     0
174
     0
 93
       13
 44
0.0
173
     0
291
     1
 45
0.0
1001
ACAD
1000
AcDbSavedByObjectVersion
1070
     0
  0
VISUALSTYLE
  5
2D
102
{ACAD_REACTORS
330
2A
102
}
330
2A
100
AcDbVisualStyle
  2
Gouraud
 70
     2
 71
     2
 72
     2
 73
     1
 90
        2
 40
-0.6
 41
30.0
 62
     5
 63
     7
421
 16777215
 74
     0
 91
        4
 64
     7
 65
   257
 75
     1
175
     1
 42
1.0
 92
        0
 66
     7
 43
1.0
 76
     1
 77
     6
 78
     2
 67
     7
 79
     5
170
     0
171
     0
290
     0
174
     0
 93
       13
 44
0.0
173
     0
291
     1
 45
0.0
1001
ACAD
1000
AcDbSavedByObjectVersion
1070
     0
  0
VISUALSTYLE
  5
2E
102
{ACAD_REACTORS
330
2A
102
}
330
2A
100
AcDbVisualStyle
  2
GouraudWithEdges
 70
     3
 71
     2
 72
     2
 73
     1
 90
        2
 40
-0.6
 41
30.0
 62
     5
 63
     7
421
 16777215
 74
     1
 91
        4
 64
     7
 65
   257
 75
     1
175
     1
 42
1.0
 92
        0
 66
   257
 43
1.0
 76
     1
 77
     6
 78
     2
 67
     7
 79
     5
170
     0
171
     0
290
     0
174
     0
 93
       13
 44
0.0
173
     0
291
     1
 45
0.0
1001
ACAD
1000
AcDbSavedByObjectVersion
1070
     0
  0
VISUALSTYLE
  5
38
102
{ACAD_REACTORS
330
2A
102
}
330
2A
100
AcDbVisualStyle
  2
Linepattern
 70
    14
 71
     2
 72
     2
 73
     0
 90
        0
 40
-0.6
 41
-30.0
 62
     5
 63
     7
421
 16777215
 74
     1
 91
        4
 64
     7
 65
   257
 75
     7
175
     7
 42
1.0
 92
        8
 66
     7
 43
1.0
 76
     1
 77
     6
 78
     2
 67
     7
 79
     5
170
     0
171
     0
290
     0
174
     0
 93
        1
 44
0.0
173
     0
291
     1
 45
0.0
1001
ACAD
1000
AcDbSavedByObjectVersion
1070
     0
  0
VISUALSTYLE
  5
33
102
{ACAD_REACTORS
330
2A
102
}
330
2A
100
AcDbVisualStyle
  2
Realistic
 70
     8
 71
     2
 72
     2
 73
     0
 90
        0
 40
-0.6
 41
-30.0
 62
     5
 63
     7
421
 16777215
 74
     1
 91
        0
 64
     7
 65
   257
 75
     1
175
     1
 42
1.0
 92
        8
 66
     8
424
  7895160
 43
1.0
 76
     1
 77
     6
 78
     2
 67
     7
 79
     5
170
     0
171
     0
290
     0
174
     0
 93
       13
 44
0.0
173
     0
291
     0
 45
0.0
1001
ACAD
1000
AcDbSavedByObjectVersion
1070
     0
  0
VISUALSTYLE
  5
37
102
{ACAD_REACTORS
330
2A
102
}
330
2A
100
AcDbVisualStyle
  2
Thicken
 70
    13
 71
     2
 72
     2
 73
     0
 90
        0
 40
-0.6
 41
-30.0
 62
     5
 63
     7
421
 16777215
 74
     1
 91
        4
 64
     7
 65
   257
 75
     1
175
     1
 42
1.0
 92
       12
 66
     7
 43
1.0
 76
     1
 77
     6
 78
     2
 67
     7
 79
     5
170
     0
171
     0
290
     0
174
     0
 93
        1
 44
0.0
173
     0
291
     1
 45
0.0
1001
ACAD
1000
AcDbSavedByObjectVersion
1070
     0
  0
ENDSEC
  0
EOF
