  0
SECTION
  2
HEADER
  9
$ACADVER
  1
AC1015
  9
$ACADMAINTVER
 70
    20
  9
$DWGCODEPAGE
  3
ANSI_1252
  9
$INSBASE
 10
0.0
 20
0.0
 30
0.0
  9
$EXTMIN
 10
73.0175701653875
 20
-23.277496651197
 30
-0.0000000349181948
  9
$EXTMAX
 10
116.9502682620797
 20
-2.820859137386833
 30
0.0000000814935747
  9
$LIMMIN
 10
-28.75138888888889
 20
50.27083333333333
  9
$LIMMAX
 10
217.6476969401041
 20
351.2161159939235
  9
$ORTHOMODE
 70
     0
  9
$REGENMODE
 70
     1
  9
$FILLMODE
 70
     1
  9
$QTEXTMODE
 70
     0
  9
$MIRRTEXT
 70
     1
  9
$LTSCALE
 40
1.0
  9
$ATTMODE
 70
     1
  9
$TEXTSIZE
 40
0.0
  9
$TRACEWID
 40
0.05
  9
$TEXTSTYLE
  7
Standard
  9
$CLAYER
  8
0
  9
$CELTYPE
  6
Continuous
  9
$CECOLOR
 62
     1
  9
$CELTSCALE
 40
1.0
  9
$DISPSILH
 70
     0
  9
$DIMSCALE
 40
1.0
  9
$DIMASZ
 40
0.18
  9
$DIMEXO
 40
0.0625
  9
$DIMDLI
 40
0.38
  9
$DIMRND
 40
0.0
  9
$DIMDLE
 40
0.0
  9
$DIMEXE
 40
0.18
  9
$DIMTP
 40
0.0
  9
$DIMTM
 40
0.0
  9
$DIMTXT
 40
0.18
  9
$DIMCEN
 40
0.09
  9
$DIMTSZ
 40
0.0
  9
$DIMTOL
 70
     0
  9
$DIMLIM
 70
     0
  9
$DIMTIH
 70
     1
  9
$DIMTOH
 70
     1
  9
$DIMSE1
 70
     0
  9
$DIMSE2
 70
     0
  9
$DIMTAD
 70
     0
  9
$DIMZIN
 70
     0
  9
$DIMBLK
  1

  9
$DIMASO
 70
     1
  9
$DIMSHO
 70
     1
  9
$DIMPOST
  1

  9
$DIMAPOST
  1

  9
$DIMALT
 70
     0
  9
$DIMALTD
 70
     2
  9
$DIMALTF
 40
25.4
  9
$DIMLFAC
 40
1.0
  9
$DIMTOFL
 70
     0
  9
$DIMTVP
 40
0.0
  9
$DIMTIX
 70
     0
  9
$DIMSOXD
 70
     0
  9
$DIMSAH
 70
     0
  9
$DIMBLK1
  1

  9
$DIMBLK2
  1

  9
$DIMSTYLE
  2
Standard
  9
$DIMCLRD
 70
     0
  9
$DIMCLRE
 70
     0
  9
$DIMCLRT
 70
     0
  9
$DIMTFAC
 40
1.0
  9
$DIMGAP
 40
0.09
  9
$DIMJUST
 70
     0
  9
$DIMSD1
 70
     0
  9
$DIMSD2
 70
     0
  9
$DIMTOLJ
 70
     1
  9
$DIMTZIN
 70
     0
  9
$DIMALTZ
 70
     0
  9
$DIMALTTZ
 70
     0
  9
$DIMUPT
 70
     0
  9
$DIMDEC
 70
     4
  9
$DIMTDEC
 70
     4
  9
$DIMALTU
 70
     2
  9
$DIMALTTD
 70
     2
  9
$DIMTXSTY
  7
Standard
  9
$DIMAUNIT
 70
     0
  9
$DIMADEC
 70
     0
  9
$DIMALTRND
 40
0.0
  9
$DIMAZIN
 70
     0
  9
$DIMDSEP
 70
     0
  9
$DIMATFIT
 70
     3
  9
$DIMFRAC
 70
     0
  9
$DIMLDRBLK
  1

  9
$DIMLUNIT
 70
     2
  9
$DIMLWD
 70
     0
  9
$DIMLWE
 70
     0
  9
$DIMTMOVE
 70
     0
  9
$LUNITS
 70
     2
  9
$LUPREC
 70
     4
  9
$SKETCHINC
 40
0.1
  9
$FILLETRAD
 40
0.0
  9
$AUNITS
 70
     0
  9
$AUPREC
 70
     0
  9
$MENU
  1
acad
  9
$ELEVATION
 40
0.0
  9
$PELEVATION
 40
0.0
  9
$THICKNESS
 40
0.0
  9
$LIMCHECK
 70
     0
  9
$CHAMFERA
 40
0.0
  9
$CHAMFERB
 40
0.0
  9
$CHAMFERC
 40
0.0
  9
$CHAMFERD
 40
0.0
  9
$SKPOLY
 70
     0
  9
$TDCREATE
 40
2454936.341354908
  9
$TDUCREATE
 40
2454936.299688240
  9
$TDUPDATE
 40
2455617.597189873
  9
$TDUUPDATE
 40
2455617.555523206
  9
$TDINDWG
 40
0.0346052199
  9
$TDUSRTIMER
 40
0.0346024884
  9
$USRTIMER
 70
     1
  9
$ANGBASE
 50
0.0
  9
$ANGDIR
 70
     0
  9
$PDMODE
 70
     0
  9
$PDSIZE
 40
0.0
  9
$PLINEWID
 40
0.0
  9
$SPLFRAME
 70
     0
  9
$SPLINETYPE
 70
     6
  9
$SPLINESEGS
 70
     8
  9
$HANDSEED
  5
ABAB
  9
$SURFTAB1
 70
     6
  9
$SURFTAB2
 70
     6
  9
$SURFTYPE
 70
     6
  9
$SURFU
 70
     6
  9
$SURFV
 70
     6
  9
$UCSBASE
  2

  9
$UCSNAME
  2

  9
$UCSORG
 10
0.0
 20
0.0
 30
0.0
  9
$UCSXDIR
 10
1.0
 20
0.0
 30
0.0
  9
$UCSYDIR
 10
0.0
 20
1.0
 30
0.0
  9
$UCSORTHOREF
  2

  9
$UCSORTHOVIEW
 70
     0
  9
$UCSORGTOP
 10
0.0
 20
0.0
 30
0.0
  9
$UCSORGBOTTOM
 10
0.0
 20
0.0
 30
0.0
  9
$UCSORGLEFT
 10
0.0
 20
0.0
 30
0.0
  9
$UCSORGRIGHT
 10
0.0
 20
0.0
 30
0.0
  9
$UCSORGFRONT
 10
0.0
 20
0.0
 30
0.0
  9
$UCSORGBACK
 10
0.0
 20
0.0
 30
0.0
  9
$PUCSBASE
  2

  9
$PUCSNAME
  2

  9
$PUCSORG
 10
0.0
 20
0.0
 30
0.0
  9
$PUCSXDIR
 10
1.0
 20
0.0
 30
0.0
  9
$PUCSYDIR
 10
0.0
 20
1.0
 30
0.0
  9
$PUCSORTHOREF
  2

  9
$PUCSORTHOVIEW
 70
     0
  9
$PUCSORGTOP
 10
0.0
 20
0.0
 30
0.0
  9
$PUCSORGBOTTOM
 10
0.0
 20
0.0
 30
0.0
  9
$PUCSORGLEFT
 10
0.0
 20
0.0
 30
0.0
  9
$PUCSORGRIGHT
 10
0.0
 20
0.0
 30
0.0
  9
$PUCSORGFRONT
 10
0.0
 20
0.0
 30
0.0
  9
$PUCSORGBACK
 10
0.0
 20
0.0
 30
0.0
  9
$USERI1
 70
     0
  9
$USERI2
 70
     0
  9
$USERI3
 70
     0
  9
$USERI4
 70
     0
  9
$USERI5
 70
     0
  9
$USERR1
 40
0.0
  9
$USERR2
 40
0.0
  9
$USERR3
 40
0.0
  9
$USERR4
 40
0.0
  9
$USERR5
 40
0.0
  9
$WORLDVIEW
 70
     1
  9
$SHADEDGE
 70
     3
  9
$SHADEDIF
 70
    70
  9
$TILEMODE
 70
     1
  9
$MAXACTVP
 70
    16
  9
$PINSBASE
 10
0.0
 20
0.0
 30
0.0
  9
$PLIMCHECK
 70
     0
  9
$PEXTMIN
 10
1.000000000000000E+20
 20
1.000000000000000E+20
 30
1.000000000000000E+20
  9
$PEXTMAX
 10
-1.000000000000000E+20
 20
-1.000000000000000E+20
 30
-1.000000000000000E+20
  9
$PLIMMIN
 10
0.0
 20
0.0
  9
$PLIMMAX
 10
12.0
 20
9.0
  9
$UNITMODE
 70
     0
  9
$VISRETAIN
 70
     0
  9
$PLINEGEN
 70
     1
  9
$PSLTSCALE
 70
     0
  9
$TREEDEPTH
 70
  3020
  9
$CMLSTYLE
  2
Standard
  9
$CMLJUST
 70
     0
  9
$CMLSCALE
 40
1.0
  9
$PROXYGRAPHICS
 70
     0
  9
$MEASUREMENT
 70
     1
  9
$CELWEIGHT
370
     0
  9
$ENDCAPS
280
     0
  9
$JOINSTYLE
280
     0
  9
$LWDISPLAY
290
     0
  9
$INSUNITS
 70
     0
  9
$HYPERLINKBASE
  1

  9
$STYLESHEET
  1

  9
$XEDIT
290
     1
  9
$CEPSNTYPE
380
     0
  9
$PSTYLEMODE
290
     1
  9
$FINGERPRINTGUID
  2

  9
$VERSIONGUID
  2
{5139CD28-6702-4E5B-9942-84F803DFF62D}
  9
$EXTNAMES
290
     1
  9
$PSVPSCALE
 40
0.0
  9
$OLESTARTUP
290
     0
  0
ENDSEC
  0
SECTION
  2
CLASSES
  0
CLASS
  1
IMAGE
  2
AcDbRasterImage
  3
ISM
 90
    34943
280
     0
281
     1
  0
CLASS
  1
DICTIONARYVAR
  2
AcDbDictionaryVar
  3
ObjectDBX Classes
 90
        0
280
     0
281
     0
  0
CLASS
  1
RASTERVARIABLES
  2
AcDbRasterVariables
  3
ISM
 90
    32768
280
     0
281
     0
  0
CLASS
  1
IMAGEDEF
  2
AcDbRasterImageDef
  3
ISM
 90
    32768
280
     0
281
     0
  0
CLASS
  1
IMAGEDEF_REACTOR
  2
AcDbRasterImageDefReactor
  3
ISM
 90
    32769
280
     0
281
     0
  0
CLASS
  1
IDBUFFER
  2
AcDbIdBuffer
  3
ObjectDBX Classes
 90
    32768
280
     0
281
     0
  0
CLASS
  1
SPATIAL_FILTER
  2
AcDbSpatialFilter
  3
ObjectDBX Classes
 90
    32768
280
     0
281
     0
  0
CLASS
  1
SORTENTSTABLE
  2
AcDbSortentsTable
  3
ObjectDBX Classes
 90
        0
280
     0
281
     0
  0
CLASS
  1
LAYER_INDEX
  2
AcDbLayerIndex
  3
ObjectDBX Classes
 90
    32768
280
     0
281
     0
  0
CLASS
  1
SPATIAL_INDEX
  2
AcDbSpatialIndex
  3
ObjectDBX Classes
 90
    32768
280
     0
281
     0
  0
CLASS
  1
OBJECT_PTR
  2
CAseDLPNTableRecord
  3
"ASE-LPNTableRecord"
 90
    32769
280
     0
281
     0
  0
CLASS
  1
PLOTSETTINGS
  2
AcDbPlotSettings
  3
ObjectDBX Classes
 90
    32768
280
     0
281
     0
  0
CLASS
  1
ACDBDICTIONARYWDFLT
  2
AcDbDictionaryWithDefault
  3
ObjectDBX Classes
 90
        0
280
     0
281
     0
  0
CLASS
  1
WIPEOUT
  2
AcDbWipeout
  3
"WipeOut|Product Desc: Object Enabler for WipeOut entity                        |Company: Autodesk, Inc.                        |WEB Address: www.autodesk.com"
 90
    34943
280
     0
281
     1
  0
CLASS
  1
WIPEOUTVARIABLES
  2
AcDbWipeoutVariables
  3
"WipeOut|Product Desc:     WipeOut Dbx Application|Company:          Autodesk, Inc.|WEB Address:      www.autodesk.com"
 90
        0
280
     0
281
     0
  0
CLASS
  1
RTEXT
  2
RText
  3
RText|AutoCAD Express Tool|expresstools@autodesk.com
 90
    32768
280
     0
281
     1
  0
CLASS
  1
ARCALIGNEDTEXT
  2
AcDbArcAlignedText
  3
ATEXT|AutoCAD Express Tool|expresstools@autodesk.com
 90
    32768
280
     0
281
     1
  0
CLASS
  1
MATERIAL
  2
AcDbMaterial
  3
ObjectDBX Classes
 90
     1153
280
     0
281
     0
  0
CLASS
  1
VISUALSTYLE
  2
AcDbVisualStyle
  3
ObjectDBX Classes
 90
     4095
280
     0
281
     0
  0
CLASS
  1
TABLESTYLE
  2
AcDbTableStyle
  3
ObjectDBX Classes
 90
     4095
280
     0
281
     0
  0
CLASS
  1
SCALE
  2
AcDbScale
  3
ObjectDBX Classes
 90
     1153
280
     0
281
     0
  0
CLASS
  1
MLEADERSTYLE
  2
AcDbMLeaderStyle
  3
ACDB_MLEADERSTYLE_CLASS
 90
     4095
280
     0
281
     0
  0
CLASS
  1
AEC_REFEDIT_STATUS_TRACKER
  2
AecDbRefEditStatusTracker
  3
AecArchBase60|Product Desc: Autodesk Architectural Desktop 2007 |Company: Autodesk,Inc. |WEB Address: www.autodesk.com
 90
      129
280
     0
281
     0
  0
CLASS
  1
NPOCOLLECTION
  2
AcDbImpNonPersistentObjectsCollection
  3
ObjectDBX Classes
 90
     1153
280
     0
281
     0
  0
CLASS
  1
CELLSTYLEMAP
  2
AcDbCellStyleMap
  3
ObjectDBX Classes
 90
     1152
280
     0
281
     0
  0
CLASS
  1
SOLID_BACKGROUND
  2
AcDbSolidBackground
  3
SCENEOE
 90
    36863
280
     0
281
     0
  0
CLASS
  1
ACDBPLACEHOLDER
  2
AcDbPlaceHolder
  3
ObjectDBX Classes
 90
        0
280
     0
281
     0
  0
CLASS
  1
LAYOUT
  2
AcDbLayout
  3
ObjectDBX Classes
 90
        0
280
     0
281
     0
  0
ENDSEC
  0
SECTION
  2
TABLES
  0
TABLE
  2
VPORT
  5
7
330
0
100
AcDbSymbolTable
 70
     1
  0
VPORT
  5
15
330
7
100
AcDbSymbolTableRecord
100
AcDbViewportTableRecord
  2
*ACTIVE
 70
     0
 10
0.0
 20
0.0
 11
1.0
 21
1.0
 12
94.98391921373359
 22
-13.04917789429191
 13
0.0
 23
0.0
 14
1.0
 24
1.0
 15
0.0
 25
0.0
 16
0.0
 26
0.0
 36
1.0
 17
0.0
 27
0.0
 37
0.0
 40
27.90676073593409
 41
1.58203125
 42
50.0
 43
0.0
 44
0.0
 50
0.0
 51
0.0
 71
     0
 72
   100
 73
     1
 74
     1
 75
     0
 76
     0
 77
     0
 78
     0
281
     0
 65
     0
110
0.0
120
0.0
130
0.0
111
1.0
121
0.0
131
0.0
112
0.0
122
1.0
132
0.0
 79
     0
146
0.0
  0
ENDTAB
  0
TABLE
  2
LTYPE
  5
4
330
0
100
AcDbSymbolTable
 70
     1
  0
LTYPE
  5
11
330
4
100
AcDbSymbolTableRecord
100
AcDbLinetypeTableRecord
  2
ByBlock
 70
     0
  3

 72
    65
 73
     0
 40
0.0
  0
LTYPE
  5
12
330
4
100
AcDbSymbolTableRecord
100
AcDbLinetypeTableRecord
  2
ByLayer
 70
     0
  3

 72
    65
 73
     0
 40
0.0
  0
LTYPE
  5
13
330
4
100
AcDbSymbolTableRecord
100
AcDbLinetypeTableRecord
  2
Continuous
 70
     0
  3
Solid line
 72
    65
 73
     0
 40
0.0
  0
ENDTAB
  0
TABLE
  2
LAYER
  5
2
330
0
100
AcDbSymbolTable
 70
     2
  0
LAYER
  5
14
102
{ACAD_XDICTIONARY
360
7C4A
102
}
330
2
100
AcDbSymbolTableRecord
100
AcDbLayerTableRecord
  2
0
 70
     0
 62
     7
  6
Continuous
370
    -3
390
1D
  0
LAYER
  5
28
102
{ACAD_XDICTIONARY
360
7C4C
102
}
330
2
100
AcDbSymbolTableRecord
100
AcDbLayerTableRecord
  2
LIVELLO_1
 70
     0
 62
   160
  6
Continuous
370
    -3
390
1D
  0
ENDTAB
  0
TABLE
  2
STYLE
  5
3
330
0
100
AcDbSymbolTable
 70
     2
  0
STYLE
  5
17
330
3
100
AcDbSymbolTableRecord
100
AcDbTextStyleTableRecord
  2
Standard
 70
     0
 40
0.0
 41
1.0
 50
0.0
 71
     0
 42
0.0
  3
txt
  4

  0
STYLE
  5
24
330
3
100
AcDbSymbolTableRecord
100
AcDbTextStyleTableRecord
  2
STD
 70
     0
 40
0.0
 41
1.0
 50
0.0
 71
     0
 42
0.0
  3
txt
  4

  0
ENDTAB
  0
TABLE
  2
VIEW
  5
5
330
0
100
AcDbSymbolTable
 70
     1
  0
ENDTAB
  0
TABLE
  2
UCS
  5
6
330
0
100
AcDbSymbolTable
 70
     0
  0
ENDTAB
  0
TABLE
  2
APPID
  5
8
330
0
100
AcDbSymbolTable
 70
     5
  0
APPID
  5
16
330
8
100
AcDbSymbolTableRecord
100
AcDbRegAppTableRecord
  2
ACAD
 70
     0
  0
APPID
  5
45DF
330
8
100
AcDbSymbolTableRecord
100
AcDbRegAppTableRecord
  2
ACAD_MLEADERVER
 70
     0
  0
APPID
  5
45E3
330
8
100
AcDbSymbolTableRecord
100
AcDbRegAppTableRecord
  2
AEC_XDATA_BOUND_SPACE
 70
     0
  0
APPID
  5
45E5
330
8
100
AcDbSymbolTableRecord
100
AcDbRegAppTableRecord
  2
ACAD_EXEMPT_FROM_CAD_STANDARDS
 70
     0
  0
APPID
  5
A870
330
8
100
AcDbSymbolTableRecord
100
AcDbRegAppTableRecord
  2
PalladioXData
 70
     0
  0
ENDTAB
  0
TABLE
  2
DIMSTYLE
  5
9
330
0
100
AcDbSymbolTable
 70
     2
100
AcDbDimStyleTable
 71
     0
  0
DIMSTYLE
105
18
330
9
100
AcDbSymbolTableRecord
100
AcDbDimStyleTableRecord
  2
Standard
 70
     0
289
     0
340
17
  0
ENDTAB
  0
TABLE
  2
BLOCK_RECORD
  5
1
330
0
100
AcDbSymbolTable
 70
     2
  0
BLOCK_RECORD
  5
A
102
{ACAD_XDICTIONARY
360
46B6
102
}
330
1
100
AcDbSymbolTableRecord
100
AcDbBlockTableRecord
  2
*MODEL_SPACE
340
20
  0
BLOCK_RECORD
  5
B
330
1
100
AcDbSymbolTableRecord
100
AcDbBlockTableRecord
  2
*PAPER_SPACE
340
21
  0
BLOCK_RECORD
  5
A9DB
330
1
100
AcDbSymbolTableRecord
100
AcDbBlockTableRecord
  2
AI9-BLK32
340
0
102
{BLKREFS
331
AA7B
331
AB22
102
}
  0
ENDTAB
  0
ENDSEC
  0
SECTION
  2
BLOCKS
  0
BLOCK
  5
D
330
A
100
AcDbEntity
  8
0
100
AcDbBlockBegin
  2
*MODEL_SPACE
 70
     0
 10
0.0
 20
0.0
 30
0.0
  3
*MODEL_SPACE
  1

  0
ENDBLK
  5
E
330
A
100
AcDbEntity
  8
0
100
AcDbBlockEnd
  0
BLOCK
  5
F
330
B
100
AcDbEntity
 67
     1
  8
0
100
AcDbBlockBegin
  2
*PAPER_SPACE
 70
     0
 10
0.0
 20
0.0
 30
0.0
  3
*PAPER_SPACE
  1

  0
ENDBLK
  5
10
330
B
100
AcDbEntity
 67
     1
  8
0
100
AcDbBlockEnd
  0
BLOCK
  5
A9DC
330
A9DB
100
AcDbEntity
  8
LIVELLO_1
 62
     7
100
AcDbBlockBegin
  2
AI9-BLK32
 70
     0
 10
0.0
 20
0.0
 30
0.0
  3
AI9-BLK32
  1

  0
SPLINE
  5
A9DD
330
A9DB
100
AcDbEntity
  8
LIVELLO_1
 62
     7
100
AcDbSpline
210
0.0
220
0.0
230
1.0
 70
     8
 71
     3
 72
     8
 73
     4
 74
     0
 42
0.0000000001
 43
0.0000000001
 40
0.0
 40
0.0
 40
0.0
 40
0.0
 40
1.0
 40
1.0
 40
1.0
 40
1.0
 10
1.348410373263888
 20
3.278697374131944
 30
0.0
 10
1.348410373263888
 20
3.299712456597221
 30
0.0
 10
1.338764105902777
 20
3.315215386284721
 30
0.0
 10
1.327050781249999
 20
3.315215386284721
 30
0.0
  0
LINE
  5
A9DE
330
A9DB
100
AcDbEntity
  8
LIVELLO_1
 62
     7
100
AcDbLine
 10
1.327050781249999
 20
3.30556911892361
 30
0.0
 11
1.208884006076388
 21
3.30556911892361
 31
0.0
  0
SPLINE
  5
A9DF
330
A9DB
100
AcDbEntity
  8
LIVELLO_1
 62
     7
100
AcDbSpline
210
0.0
220
0.0
230
1.0
 70
     8
 71
     3
 72
     8
 73
     4
 74
     0
 42
0.0000000001
 43
0.0000000001
 40
0.0
 40
0.0
 40
0.0
 40
0.0
 40
1.0
 40
1.0
 40
1.0
 40
1.0
 10
1.348410373263888
 20
3.278697374131944
 30
0.0
 10
1.348410373263888
 20
3.299712456597221
 30
0.0
 10
1.338764105902777
 20
3.315215386284721
 30
0.0
 10
1.327050781249999
 20
3.315215386284721
 30
0.0
  0
SPLINE
  5
A9E0
330
A9DB
100
AcDbEntity
  8
LIVELLO_1
 62
     7
100
AcDbSpline
210
0.0
220
0.0
230
1.0
 70
     8
 71
     3
 72
     8
 73
     4
 74
     0
 42
0.0000000001
 43
0.0000000001
 40
0.0
 40
0.0
 40
0.0
 40
0.0
 40
1.0
 40
1.0
 40
1.0
 40
1.0
 10
1.210606553819444
 20
3.30556911892361
 30
0.0
 10
1.198204210069444
 20
3.30556911892361
 30
0.0
 10
1.186490885416666
 20
3.294200303819444
 30
0.0
 10
1.186490885416666
 20
3.282142469618055
 30
0.0
  0
LINE
  5
A9E1
330
A9DB
100
AcDbEntity
  8
LIVELLO_1
 62
     7
100
AcDbLine
 10
1.120345052083333
 20
1.483802625868055
 30
0.0
 11
1.120345052083333
 21
-2.787082248263888
 31
0.0
  0
SPLINE
  5
A9E2
330
A9DB
100
AcDbEntity
  8
LIVELLO_1
 62
     7
100
AcDbSpline
210
0.0
220
0.0
230
1.0
 70
     8
 71
     3
 72
     8
 73
     4
 74
     0
 42
0.0000000001
 43
0.0000000001
 40
0.0
 40
0.0
 40
0.0
 40
0.0
 40
1.0
 40
1.0
 40
1.0
 40
1.0
 10
1.210606553819444
 20
3.30556911892361
 30
0.0
 10
1.198204210069444
 20
3.30556911892361
 30
0.0
 10
1.186490885416666
 20
3.294200303819444
 30
0.0
 10
1.186490885416666
 20
3.282142469618055
 30
0.0
  0
SPLINE
  5
A9E3
330
A9DB
100
AcDbEntity
  8
LIVELLO_1
 62
     7
100
AcDbSpline
210
0.0
220
0.0
230
1.0
 70
     8
 71
     3
 72
     8
 73
     4
 74
     0
 42
0.0000000001
 43
0.0000000001
 40
0.0
 40
0.0
 40
0.0
 40
0.0
 40
1.0
 40
1.0
 40
1.0
 40
1.0
 10
1.083482530381944
 20
-2.824633789062499
 30
0.0
 10
1.103808593749999
 20
-2.824633789062499
 30
0.0
 10
1.120689561631944
 20
-2.808786349826388
 30
0.0
 10
1.120689561631944
 20
-2.78777126736111
 30
0.0
  0
LINE
  5
A9E4
330
A9DB
100
AcDbEntity
  8
LIVELLO_1
 62
     7
100
AcDbLine
 10
0.0564995659722222
 20
3.188780381944444
 30
0.0
 11
1.019403754340277
 21
3.188780381944444
 31
0.0
  0
LINE
  5
A9E5
330
A9DB
100
AcDbEntity
  8
LIVELLO_1
 62
     7
100
AcDbLine
 10
1.019059244791666
 20
3.30556911892361
 30
0.0
 11
0.0564995659722222
 21
3.30556911892361
 31
0.0
  0
LINE
  5
A9E6
330
A9DB
100
AcDbEntity
  8
LIVELLO_1
 62
     7
100
AcDbLine
 10
1.348410373263888
 20
-3.081637912326388
 30
0.0
 11
1.348410373263888
 21
3.284554036458333
 31
0.0
  0
LINE
  5
A9E7
330
A9DB
100
AcDbEntity
  8
LIVELLO_1
 62
     7
100
AcDbLine
 10
1.083482530381944
 20
-2.824633789062499
 30
0.0
 11
0.0564995659722222
 21
-2.824633789062499
 31
0.0
  0
SPLINE
  5
A9E8
330
A9DB
100
AcDbEntity
  8
LIVELLO_1
 62
     7
100
AcDbSpline
210
0.0
220
0.0
230
1.0
 70
     8
 71
     3
 72
     8
 73
     4
 74
     0
 42
0.0000000001
 43
0.0000000001
 40
0.0
 40
0.0
 40
0.0
 40
0.0
 40
1.0
 40
1.0
 40
1.0
 40
1.0
 10
1.083482530381944
 20
-2.824633789062499
 30
0.0
 10
1.103808593749999
 20
-2.824633789062499
 30
0.0
 10
1.120689561631944
 20
-2.808786349826388
 30
0.0
 10
1.120689561631944
 20
-2.78777126736111
 30
0.0
  0
SPLINE
  5
A9E9
330
A9DB
100
AcDbEntity
  8
LIVELLO_1
 62
     7
100
AcDbSpline
210
0.0
220
0.0
230
1.0
 70
     8
 71
     3
 72
     8
 73
     4
 74
     0
 42
0.0000000001
 43
0.0000000001
 40
0.0
 40
0.0
 40
0.0
 40
0.0
 40
1.0
 40
1.0
 40
1.0
 40
1.0
 10
1.019059244791666
 20
3.188780381944444
 30
0.0
 10
1.036284722222222
 20
3.188780381944444
 30
0.0
 10
1.053510199652777
 20
3.190158420138888
 30
0.0
 10
1.069357638888888
 20
3.197737630208333
 30
0.0
  0
LINE
  5
A9EA
330
A9DB
100
AcDbEntity
  8
LIVELLO_1
 62
     7
100
AcDbLine
 10
1.206472439236111
 20
3.247002495659721
 30
0.0
 11
1.069357638888888
 21
3.296611870659722
 31
0.0
  0
LINE
  5
A9EB
330
A9DB
100
AcDbEntity
  8
LIVELLO_1
 62
     7
100
AcDbLine
 10
1.069357638888888
 20
3.197737630208333
 30
0.0
 11
1.206472439236111
 21
3.247347005208332
 31
0.0
  0
SPLINE
  5
A9EC
330
A9DB
100
AcDbEntity
  8
LIVELLO_1
 62
     7
100
AcDbSpline
210
0.0
220
0.0
230
1.0
 70
     8
 71
     3
 72
     8
 73
     4
 74
     0
 42
0.0000000001
 43
0.0000000001
 40
0.0
 40
0.0
 40
0.0
 40
0.0
 40
1.0
 40
1.0
 40
1.0
 40
1.0
 10
1.019059244791666
 20
3.188780381944444
 30
0.0
 10
1.036284722222222
 20
3.188780381944444
 30
0.0
 10
1.053510199652777
 20
3.190158420138888
 30
0.0
 10
1.069357638888888
 20
3.197737630208333
 30
0.0
  0
SPLINE
  5
A9ED
330
A9DB
100
AcDbEntity
  8
LIVELLO_1
 62
     7
100
AcDbSpline
210
0.0
220
0.0
230
1.0
 70
     8
 71
     3
 72
     8
 73
     4
 74
     0
 42
0.0000000001
 43
0.0000000001
 40
0.0
 40
0.0
 40
0.0
 40
0.0
 40
1.0
 40
1.0
 40
1.0
 40
1.0
 10
1.069357638888888
 20
3.29626736111111
 30
0.0
 10
1.053510199652777
 20
3.302124023437499
 30
0.0
 10
1.036629231770833
 20
3.30556911892361
 30
0.0
 10
1.019403754340277
 20
3.30556911892361
 30
0.0
  0
LINE
  5
A9EE
330
A9DB
100
AcDbEntity
  8
LIVELLO_1
 62
     7
100
AcDbLine
 10
1.973350694444444
 20
-2.416734483506944
 30
0.0
 11
1.973350694444444
 21
-2.43430447048611
 31
0.0
  0
LINE
  5
A9EF
330
A9DB
100
AcDbEntity
  8
LIVELLO_1
 62
     7
100
AcDbLine
 10
2.708534071180555
 20
-2.43430447048611
 30
0.0
 11
2.708534071180555
 21
-2.416734483506944
 31
0.0
  0
LINE
  5
A9F0
330
A9DB
100
AcDbEntity
  8
LIVELLO_1
 62
     7
100
AcDbLine
 10
1.606103515624999
 20
-3.306947157118055
 30
0.0
 11
3.075092230902777
 21
-3.306947157118055
 31
0.0
  0
SPLINE
  5
A9F1
330
A9DB
100
AcDbEntity
  8
LIVELLO_1
 62
     7
100
AcDbSpline
210
0.0
220
0.0
230
1.0
 70
     8
 71
     3
 72
     8
 73
     4
 74
     0
 42
0.0000000001
 43
0.0000000001
 40
0.0
 40
0.0
 40
0.0
 40
0.0
 40
1.0
 40
1.0
 40
1.0
 40
1.0
 10
1.069357638888888
 20
3.29626736111111
 30
0.0
 10
1.053510199652777
 20
3.302124023437499
 30
0.0
 10
1.036629231770833
 20
3.30556911892361
 30
0.0
 10
1.019403754340277
 20
3.30556911892361
 30
0.0
  0
SPLINE
  5
A9F2
330
A9DB
100
AcDbEntity
  8
LIVELLO_1
 62
     7
100
AcDbSpline
210
0.0
220
0.0
230
1.0
 70
     8
 71
     3
 72
     8
 73
     4
 74
     0
 42
0.0000000001
 43
0.0000000001
 40
0.0
 40
0.0
 40
0.0
 40
0.0
 40
1.0
 40
1.0
 40
1.0
 40
1.0
 10
-1.390440538194444
 20
-3.306258138020833
 30
0.0
 10
-1.403531901041666
 20
-3.306258138020833
 30
0.0
 10
-1.4138671875
 20
-3.295578342013888
 30
0.0
 10
-1.4138671875
 20
-3.282142469618055
 30
0.0
  0
LINE
  5
A9F3
330
A9DB
100
AcDbEntity
  8
LIVELLO_1
 62
     7
100
AcDbLine
 10
-1.4138671875
 20
-3.284898546006944
 30
0.0
 11
-1.4138671875
 21
-2.976562499999999
 31
0.0
  0
SPLINE
  5
A9F4
330
A9DB
100
AcDbEntity
  8
LIVELLO_1
 62
     7
100
AcDbSpline
210
0.0
220
0.0
230
1.0
 70
     8
 71
     3
 72
     8
 73
     4
 74
     0
 42
0.0000000001
 43
0.0000000001
 40
0.0
 40
0.0
 40
0.0
 40
0.0
 40
1.0
 40
1.0
 40
1.0
 40
1.0
 10
-1.390440538194444
 20
-3.306258138020833
 30
0.0
 10
-1.403531901041666
 20
-3.306258138020833
 30
0.0
 10
-1.4138671875
 20
-3.295578342013888
 30
0.0
 10
-1.4138671875
 20
-3.282142469618055
 30
0.0
  0
SPLINE
  5
A9F5
330
A9DB
100
AcDbEntity
  8
LIVELLO_1
 62
     7
100
AcDbSpline
210
0.0
220
0.0
230
1.0
 70
     8
 71
     3
 72
     8
 73
     4
 74
     0
 42
0.0000000001
 43
0.0000000001
 40
0.0
 40
0.0
 40
0.0
 40
0.0
 40
1.0
 40
1.0
 40
1.0
 40
1.0
 10
-1.450729709201388
 20
-2.939355468749999
 30
0.0
 10
-1.42971462673611
 20
-2.939355468749999
 30
0.0
 10
-1.4138671875
 20
-2.955891927083333
 30
0.0
 10
-1.4138671875
 20
-2.976562499999999
 30
0.0
  0
LINE
  5
A9F6
330
A9DB
100
AcDbEntity
  8
LIVELLO_1
 62
     7
100
AcDbLine
 10
-1.450729709201388
 20
-2.939355468749999
 30
0.0
 11
-1.859662543402777
 21
-2.939355468749999
 31
0.0
  0
SPLINE
  5
A9F7
330
A9DB
100
AcDbEntity
  8
LIVELLO_1
 62
     7
100
AcDbSpline
210
0.0
220
0.0
230
1.0
 70
     8
 71
     3
 72
     8
 73
     4
 74
     0
 42
0.0000000001
 43
0.0000000001
 40
0.0
 40
0.0
 40
0.0
 40
0.0
 40
1.0
 40
1.0
 40
1.0
 40
1.0
 10
-1.450729709201388
 20
-2.939355468749999
 30
0.0
 10
-1.42971462673611
 20
-2.939355468749999
 30
0.0
 10
-1.4138671875
 20
-2.955891927083333
 30
0.0
 10
-1.4138671875
 20
-2.976562499999999
 30
0.0
  0
SPLINE
  5
A9F8
330
A9DB
100
AcDbEntity
  8
LIVELLO_1
 62
     7
100
AcDbSpline
210
0.0
220
0.0
230
1.0
 70
     8
 71
     3
 72
     8
 73
     4
 74
     0
 42
0.0000000001
 43
0.0000000001
 40
0.0
 40
0.0
 40
0.0
 40
0.0
 40
1.0
 40
1.0
 40
1.0
 40
1.0
 10
-1.859662543402777
 20
-2.939355468749999
 30
0.0
 10
-1.865174696180555
 20
-2.939355468749999
 30
0.0
 10
-1.871720377604166
 20
-2.9362548828125
 30
0.0
 10
-1.876199001736111
 20
-2.932465277777777
 30
0.0
  0
LINE
  5
A9F9
330
A9DB
100
AcDbEntity
  8
LIVELLO_1
 62
     7
100
AcDbLine
 10
-1.876199001736111
 20
-2.933154296874999
 30
0.0
 11
-1.973006184895833
 21
-2.835658094618055
 31
0.0
  0
SPLINE
  5
A9FA
330
A9DB
100
AcDbEntity
  8
LIVELLO_1
 62
     7
100
AcDbSpline
210
0.0
220
0.0
230
1.0
 70
     8
 71
     3
 72
     8
 73
     4
 74
     0
 42
0.0000000001
 43
0.0000000001
 40
0.0
 40
0.0
 40
0.0
 40
0.0
 40
1.0
 40
1.0
 40
1.0
 40
1.0
 10
-1.859662543402777
 20
-2.939355468749999
 30
0.0
 10
-1.865174696180555
 20
-2.939355468749999
 30
0.0
 10
-1.871720377604166
 20
-2.9362548828125
 30
0.0
 10
-1.876199001736111
 20
-2.932465277777777
 30
0.0
  0
SPLINE
  5
A9FB
330
A9DB
100
AcDbEntity
  8
LIVELLO_1
 62
     7
100
AcDbSpline
210
0.0
220
0.0
230
1.0
 70
     8
 71
     3
 72
     8
 73
     4
 74
     0
 42
0.0000000001
 43
0.0000000001
 40
0.0
 40
0.0
 40
0.0
 40
0.0
 40
1.0
 40
1.0
 40
1.0
 40
1.0
 10
-1.972661675347222
 20
-2.835658094618055
 30
0.0
 10
-1.976795789930555
 20
-2.830145941840277
 30
0.0
 10
-1.980240885416666
 20
-2.823944769965277
 30
0.0
 10
-1.980240885416666
 20
-2.81877712673611
 30
0.0
  0
LINE
  5
A9FC
330
A9DB
100
AcDbEntity
  8
LIVELLO_1
 62
     7
100
AcDbLine
 10
-1.980240885416666
 20
-2.820499674479166
 30
0.0
 11
-1.980240885416666
 21
-2.740228949652777
 31
0.0
  0
SPLINE
  5
A9FD
330
A9DB
100
AcDbEntity
  8
LIVELLO_1
 62
     7
100
AcDbSpline
210
0.0
220
0.0
230
1.0
 70
     8
 71
     3
 72
     8
 73
     4
 74
     0
 42
0.0000000001
 43
0.0000000001
 40
0.0
 40
0.0
 40
0.0
 40
0.0
 40
1.0
 40
1.0
 40
1.0
 40
1.0
 10
-1.972661675347222
 20
-2.835658094618055
 30
0.0
 10
-1.976795789930555
 20
-2.830145941840277
 30
0.0
 10
-1.980240885416666
 20
-2.823944769965277
 30
0.0
 10
-1.980240885416666
 20
-2.81877712673611
 30
0.0
  0
SPLINE
  5
A9FE
330
A9DB
100
AcDbEntity
  8
LIVELLO_1
 62
     7
100
AcDbSpline
210
0.0
220
0.0
230
1.0
 70
     8
 71
     3
 72
     8
 73
     4
 74
     0
 42
0.0000000001
 43
0.0000000001
 40
0.0
 40
0.0
 40
0.0
 40
0.0
 40
1.0
 40
1.0
 40
1.0
 40
1.0
 10
-1.980240885416666
 20
-2.74436306423611
 30
0.0
 10
-1.980240885416666
 20
-2.726448567708333
 30
0.0
 10
-1.970594618055555
 20
-2.709567599826388
 30
0.0
 10
-1.958192274305555
 20
-2.709567599826388
 30
0.0
  0
LINE
  5
A9FF
330
A9DB
100
AcDbEntity
  8
LIVELLO_1
 62
     7
100
AcDbLine
 10
-2.596912977430555
 20
-2.718524848090277
 30
0.0
 11
-2.487358940972221
 21
-2.718524848090277
 31
0.0
  0
LINE
  5
AA00
330
A9DB
100
AcDbEntity
  8
LIVELLO_1
 62
     7
100
AcDbLine
 10
-2.596912977430555
 20
-2.408810763888888
 30
0.0
 11
-2.596912977430555
 21
-2.718524848090277
 31
0.0
  0
LINE
  5
AA01
330
A9DB
100
AcDbEntity
  8
LIVELLO_1
 62
     7
100
AcDbLine
 10
-1.846915690104166
 20
-2.408810763888888
 30
0.0
 11
-2.597601996527777
 21
-2.408810763888888
 31
0.0
  0
LINE
  5
AA02
330
A9DB
100
AcDbEntity
  8
LIVELLO_1
 62
     7
100
AcDbLine
 10
-1.846915690104166
 20
-2.718524848090277
 30
0.0
 11
-1.846915690104166
 21
-2.408810763888888
 31
0.0
  0
LINE
  5
AA03
330
A9DB
100
AcDbEntity
  8
LIVELLO_1
 62
     7
100
AcDbLine
 10
-1.958192274305555
 20
-2.718524848090277
 30
0.0
 11
-1.846915690104166
 21
-2.718524848090277
 31
0.0
  0
SPLINE
  5
AA04
330
A9DB
100
AcDbEntity
  8
LIVELLO_1
 62
     7
100
AcDbSpline
210
0.0
220
0.0
230
1.0
 70
     8
 71
     3
 72
     8
 73
     4
 74
     0
 42
0.0000000001
 43
0.0000000001
 40
0.0
 40
0.0
 40
0.0
 40
0.0
 40
1.0
 40
1.0
 40
1.0
 40
1.0
 10
-1.980240885416666
 20
-2.74436306423611
 30
0.0
 10
-1.980240885416666
 20
-2.726448567708333
 30
0.0
 10
-1.970594618055555
 20
-2.709567599826388
 30
0.0
 10
-1.958192274305555
 20
-2.709567599826388
 30
0.0
  0
SPLINE
  5
AA05
330
A9DB
100
AcDbEntity
  8
LIVELLO_1
 62
     7
100
AcDbSpline
210
0.0
220
0.0
230
1.0
 70
     8
 71
     3
 72
     8
 73
     4
 74
     0
 42
0.0000000001
 43
0.0000000001
 40
0.0
 40
0.0
 40
0.0
 40
0.0
 40
1.0
 40
1.0
 40
1.0
 40
1.0
 10
-2.488736979166666
 20
-2.718524848090277
 30
0.0
 10
-2.475645616319444
 20
-2.718524848090277
 30
0.0
 10
-2.464965820312499
 20
-2.728515624999999
 30
0.0
 10
-2.464965820312499
 20
-2.743329535590277
 30
0.0
  0
LINE
  5
AA06
330
A9DB
100
AcDbEntity
  8
LIVELLO_1
 62
     7
100
AcDbLine
 10
-2.464965820312499
 20
-2.740573459201388
 30
0.0
 11
-2.464965820312499
 21
-2.820844184027777
 31
0.0
  0
SPLINE
  5
AA07
330
A9DB
100
AcDbEntity
  8
LIVELLO_1
 62
     7
100
AcDbSpline
210
0.0
220
0.0
230
1.0
 70
     8
 71
     3
 72
     8
 73
     4
 74
     0
 42
0.0000000001
 43
0.0000000001
 40
0.0
 40
0.0
 40
0.0
 40
0.0
 40
1.0
 40
1.0
 40
1.0
 40
1.0
 10
-2.488736979166666
 20
-2.718524848090277
 30
0.0
 10
-2.475645616319444
 20
-2.718524848090277
 30
0.0
 10
-2.464965820312499
 20
-2.728515624999999
 30
0.0
 10
-2.464965820312499
 20
-2.743329535590277
 30
0.0
  0
SPLINE
  5
AA08
330
A9DB
100
AcDbEntity
  8
LIVELLO_1
 62
     7
100
AcDbSpline
210
0.0
220
0.0
230
1.0
 70
     8
 71
     3
 72
     8
 73
     4
 74
     0
 42
0.0000000001
 43
0.0000000001
 40
0.0
 40
0.0
 40
0.0
 40
0.0
 40
1.0
 40
1.0
 40
1.0
 40
1.0
 10
-2.46531032986111
 20
-2.817054578993055
 30
0.0
 10
-2.46531032986111
 20
-2.823944769965277
 30
0.0
 10
-2.466688368055555
 20
-2.831868489583333
 30
0.0
 10
-2.47151150173611
 20
-2.839103190104166
 30
0.0
  0
LINE
  5
AA09
330
A9DB
100
AcDbEntity
  8
LIVELLO_1
 62
     7
100
AcDbLine
 10
-2.47151150173611
 20
-2.835658094618055
 30
0.0
 11
-2.569352213541666
 21
-2.933843315972222
 31
0.0
  0
SPLINE
  5
AA0A
330
A9DB
100
AcDbEntity
  8
LIVELLO_1
 62
     7
100
AcDbSpline
210
0.0
220
0.0
230
1.0
 70
     8
 71
     3
 72
     8
 73
     4
 74
     0
 42
0.0000000001
 43
0.0000000001
 40
0.0
 40
0.0
 40
0.0
 40
0.0
 40
1.0
 40
1.0
 40
1.0
 40
1.0
 10
-2.46531032986111
 20
-2.817054578993055
 30
0.0
 10
-2.46531032986111
 20
-2.823944769965277
 30
0.0
 10
-2.466688368055555
 20
-2.831868489583333
 30
0.0
 10
-2.47151150173611
 20
-2.839103190104166
 30
0.0
  0
SPLINE
  5
AA0B
330
A9DB
100
AcDbEntity
  8
LIVELLO_1
 62
     7
100
AcDbSpline
210
0.0
220
0.0
230
1.0
 70
     8
 71
     3
 72
     8
 73
     4
 74
     0
 42
0.0000000001
 43
0.0000000001
 40
0.0
 40
0.0
 40
0.0
 40
0.0
 40
1.0
 40
1.0
 40
1.0
 40
1.0
 10
-2.57693142361111
 20
-2.912828233506944
 30
0.0
 10
-2.578998480902777
 20
-2.945212131076388
 30
0.0
 10
-2.581754557291666
 20
-2.962782118055555
 30
0.0
 10
-2.584510633680555
 20
-2.962782118055555
 30
0.0
  0
LINE
  5
AA0C
330
A9DB
100
AcDbEntity
  8
LIVELLO_1
 62
     7
100
AcDbLine
 10
-2.584510633680555
 20
-2.939355468749999
 30
0.0
 11
-2.994132486979166
 21
-2.939355468749999
 31
0.0
  0
SPLINE
  5
AA0D
330
A9DB
100
AcDbEntity
  8
LIVELLO_1
 62
     7
100
AcDbSpline
210
0.0
220
0.0
230
1.0
 70
     8
 71
     3
 72
     8
 73
     4
 74
     0
 42
0.0000000001
 43
0.0000000001
 40
0.0
 40
0.0
 40
0.0
 40
0.0
 40
1.0
 40
1.0
 40
1.0
 40
1.0
 10
-2.57693142361111
 20
-2.912828233506944
 30
0.0
 10
-2.578998480902777
 20
-2.945212131076388
 30
0.0
 10
-2.581754557291666
 20
-2.962782118055555
 30
0.0
 10
-2.584510633680555
 20
-2.962782118055555
 30
0.0
  0
SPLINE
  5
AA0E
330
A9DB
100
AcDbEntity
  8
LIVELLO_1
 62
     7
100
AcDbSpline
210
0.0
220
0.0
230
1.0
 70
     8
 71
     3
 72
     8
 73
     4
 74
     0
 42
0.0000000001
 43
0.0000000001
 40
0.0
 40
0.0
 40
0.0
 40
0.0
 40
1.0
 40
1.0
 40
1.0
 40
1.0
 10
-3.031339518229166
 20
-2.976907009548611
 30
0.0
 10
-3.031339518229166
 20
-2.955547417534722
 30
0.0
 10
-3.014458550347221
 20
-2.939355468749999
 30
0.0
 10
-2.994476996527777
 20
-2.939355468749999
 30
0.0
  0
LINE
  5
AA0F
330
A9DB
100
AcDbEntity
  8
LIVELLO_1
 62
     7
100
AcDbLine
 10
-3.031339518229166
 20
-2.976907009548611
 30
0.0
 11
-3.031339518229166
 21
-3.284898546006944
 31
0.0
  0
SPLINE
  5
AA10
330
A9DB
100
AcDbEntity
  8
LIVELLO_1
 62
     7
100
AcDbSpline
210
0.0
220
0.0
230
1.0
 70
     8
 71
     3
 72
     8
 73
     4
 74
     0
 42
0.0000000001
 43
0.0000000001
 40
0.0
 40
0.0
 40
0.0
 40
0.0
 40
1.0
 40
1.0
 40
1.0
 40
1.0
 10
-3.031339518229166
 20
-2.976907009548611
 30
0.0
 10
-3.031339518229166
 20
-2.955547417534722
 30
0.0
 10
-3.014458550347221
 20
-2.939355468749999
 30
0.0
 10
-2.994476996527777
 20
-2.939355468749999
 30
0.0
  0
SPLINE
  5
AA11
330
A9DB
100
AcDbEntity
  8
LIVELLO_1
 62
     7
100
AcDbSpline
210
0.0
220
0.0
230
1.0
 70
     8
 71
     3
 72
     8
 73
     4
 74
     0
 42
0.0000000001
 43
0.0000000001
 40
0.0
 40
0.0
 40
0.0
 40
0.0
 40
1.0
 40
1.0
 40
1.0
 40
1.0
 10
-3.031339518229166
 20
-3.279386393229166
 30
0.0
 10
-3.031339518229166
 20
-3.299712456597221
 30
0.0
 10
-3.040641276041666
 20
-3.315215386284721
 30
0.0
 10
-3.053043619791666
 20
-3.315215386284721
 30
0.0
  0
SPLINE
  5
AA12
330
A9DB
100
AcDbEntity
  8
LIVELLO_1
 62
     7
100
AcDbSpline
210
0.0
220
0.0
230
1.0
 70
     8
 71
     3
 72
     8
 73
     4
 74
     0
 42
0.0000000001
 43
0.0000000001
 40
0.0
 40
0.0
 40
0.0
 40
0.0
 40
1.0
 40
1.0
 40
1.0
 40
1.0
 10
-2.795350477430555
 20
-2.644799804687499
 30
0.0
 10
-2.795350477430555
 20
-2.684073893229166
 30
0.0
 10
-2.828423394097221
 20
-2.718524848090277
 30
0.0
 10
-2.869075520833332
 20
-2.718524848090277
 30
0.0
  0
LINE
  5
AA13
330
A9DB
100
AcDbEntity
  8
LIVELLO_1
 62
     7
100
AcDbLine
 10
-2.795350477430555
 20
-2.644799804687499
 30
0.0
 11
-2.795350477430555
 21
-2.262049696180555
 31
0.0
  0
SPLINE
  5
AA14
330
A9DB
100
AcDbEntity
  8
LIVELLO_1
 62
     7
100
AcDbSpline
210
0.0
220
0.0
230
1.0
 70
     8
 71
     3
 72
     8
 73
     4
 74
     0
 42
0.0000000001
 43
0.0000000001
 40
0.0
 40
0.0
 40
0.0
 40
0.0
 40
1.0
 40
1.0
 40
1.0
 40
1.0
 10
-2.795350477430555
 20
-2.644799804687499
 30
0.0
 10
-2.795350477430555
 20
-2.684073893229166
 30
0.0
 10
-2.828423394097221
 20
-2.718524848090277
 30
0.0
 10
-2.869075520833332
 20
-2.718524848090277
 30
0.0
  0
SPLINE
  5
AA15
330
A9DB
100
AcDbEntity
  8
LIVELLO_1
 62
     7
100
AcDbSpline
210
0.0
220
0.0
230
1.0
 70
     8
 71
     3
 72
     8
 73
     4
 74
     0
 42
0.0000000001
 43
0.0000000001
 40
0.0
 40
0.0
 40
0.0
 40
0.0
 40
1.0
 40
1.0
 40
1.0
 40
1.0
 10
-2.795350477430555
 20
-2.262049696180555
 30
0.0
 10
-2.795350477430555
 20
-2.222086588541666
 30
0.0
 10
-2.763311089409722
 20
-2.189702690972222
 30
0.0
 10
-2.722314453124999
 20
-2.189702690972222
 30
0.0
  0
LINE
  5
AA16
330
A9DB
100
AcDbEntity
  8
LIVELLO_1
 62
     7
100
AcDbLine
 10
0.0613226996527778
 20
1.470711263020833
 30
0.0
 11
-1.024571397569444
 21
1.470711263020833
 31
0.0
  0
LINE
  5
AA17
330
A9DB
100
AcDbEntity
  8
LIVELLO_1
 62
     7
100
AcDbLine
 10
0.0609781901041667
 20
-3.306602647569444
 30
0.0
 11
-1.424891493055555
 21
-3.306947157118055
 31
0.0
  0
LINE
  5
AA18
330
A9DB
100
AcDbEntity
  8
LIVELLO_1
 62
     7
100
AcDbLine
 10
-1.230588107638888
 20
-3.054077148437499
 30
0.0
 11
0.0613226996527778
 21
-3.054077148437499
 31
0.0
  0
LINE
  5
AA19
330
A9DB
100
AcDbEntity
  8
LIVELLO_1
 62
     7
100
AcDbLine
 10
-1.722547743055555
 20
-2.18935818142361
 30
0.0
 11
-1.248502604166666
 21
-0.0906060112847222
 31
0.0
  0
LINE
  5
AA1A
330
A9DB
100
AcDbEntity
  8
LIVELLO_1
 62
     7
100
AcDbLine
 10
-2.26687282986111
 20
-2.18935818142361
 30
0.0
 11
-1.721858723958333
 21
-2.18935818142361
 31
0.0
  0
LINE
  5
AA1B
330
A9DB
100
AcDbEntity
  8
LIVELLO_1
 62
     7
100
AcDbLine
 10
-2.722314453124999
 20
-2.18935818142361
 30
0.0
 11
-2.266183810763888
 21
-2.18935818142361
 31
0.0
  0
SPLINE
  5
AA1C
330
A9DB
100
AcDbEntity
  8
LIVELLO_1
 62
     7
100
AcDbSpline
210
0.0
220
0.0
230
1.0
 70
     8
 71
     3
 72
     8
 73
     4
 74
     0
 42
0.0000000001
 43
0.0000000001
 40
0.0
 40
0.0
 40
0.0
 40
0.0
 40
1.0
 40
1.0
 40
1.0
 40
1.0
 10
-2.795350477430555
 20
-2.262049696180555
 30
0.0
 10
-2.795350477430555
 20
-2.222086588541666
 30
0.0
 10
-2.763311089409722
 20
-2.189702690972222
 30
0.0
 10
-2.722314453124999
 20
-2.189702690972222
 30
0.0
  0
SPLINE
  5
AA1D
330
A9DB
100
AcDbEntity
  8
LIVELLO_1
 62
     7
100
AcDbSpline
210
0.0
220
0.0
230
1.0
 70
     8
 71
     3
 72
     8
 73
     4
 74
     0
 42
0.0000000001
 43
0.0000000001
 40
0.0
 40
0.0
 40
0.0
 40
0.0
 40
1.0
 40
1.0
 40
1.0
 40
1.0
 10
-1.022159830729166
 20
1.470711263020833
 30
0.0
 10
-1.035595703124999
 20
1.470711263020833
 30
0.0
 10
-1.045930989583333
 20
1.482080078124999
 30
0.0
 10
-1.045930989583333
 20
1.494137912326388
 30
0.0
  0
LINE
  5
AA1E
330
A9DB
100
AcDbEntity
  8
LIVELLO_1
 62
     7
100
AcDbLine
 10
-1.045930989583333
 20
1.493448893229166
 30
0.0
 11
-1.045930989583333
 21
3.290755208333333
 31
0.0
  0
SPLINE
  5
AA1F
330
A9DB
100
AcDbEntity
  8
LIVELLO_1
 62
     7
100
AcDbSpline
210
0.0
220
0.0
230
1.0
 70
     8
 71
     3
 72
     8
 73
     4
 74
     0
 42
0.0000000001
 43
0.0000000001
 40
0.0
 40
0.0
 40
0.0
 40
0.0
 40
1.0
 40
1.0
 40
1.0
 40
1.0
 10
-1.022159830729166
 20
1.470711263020833
 30
0.0
 10
-1.035595703124999
 20
1.470711263020833
 30
0.0
 10
-1.045930989583333
 20
1.482080078124999
 30
0.0
 10
-1.045930989583333
 20
1.494137912326388
 30
0.0
  0
ENDBLK
  5
AA20
330
A9DB
100
AcDbEntity
  8
LIVELLO_1
100
AcDbBlockEnd
  0
ENDSEC
  0
SECTION
  2
ENTITIES
  0
MTEXT
  5
5D58
330
A
100
AcDbEntity
  8
LIVELLO_1
 62
     7
370
     0
100
AcDbMText
 10
181.2509521484375
 20
251.5471165736516
 30
0.0
 40
1.181175547175937
 41
0.0
 71
     1
 72
     2
  1
\fFuturaLtPL-Regular|b0|i0;\H1.1812;\C7; 
  7
STD
 73
     1
 44
1.0
1001
ACAD
1000
MTEXTBEGIN
1070
    73
1070
     1
1070
    44
1040
1.0
1070
    74
1070
     0
1000
MTEXTEND
  0
MTEXT
  5
5D5E
330
A
100
AcDbEntity
  8
LIVELLO_1
 62
     7
370
     0
100
AcDbMText
 10
181.2509521484375
 20
266.1019559833738
 30
0.0
 40
1.181175547175937
 41
0.0
 71
     1
 72
     2
  1
\fFuturaLtPL-Regular|b0|i0;\H1.1812;\C7; 
  7
STD
 73
     1
 44
1.0
1001
ACAD
1000
MTEXTBEGIN
1070
    73
1070
     1
1070
    44
1040
1.0
1070
    74
1070
     0
1000
MTEXTEND
  0
MTEXT
  5
5E9C
330
A
100
AcDbEntity
  8
LIVELLO_1
 62
     7
370
     0
100
AcDbMText
 10
207.4250651041666
 20
266.1677573071586
 30
0.0
 40
1.181175547175937
 41
0.0
 71
     1
 72
     2
  1
\fFuturaLtPL-Regular|b0|i0;\H1.1812;\C7; 
  7
STD
 73
     1
 44
1.0
1001
ACAD
1000
MTEXTBEGIN
1070
    73
1070
     1
1070
    44
1040
1.0
1070
    74
1070
     0
1000
MTEXTEND
  0
MTEXT
  5
5EE4
330
A
100
AcDbEntity
  8
LIVELLO_1
 62
     7
370
     0
100
AcDbMText
 10
181.5120903862847
 20
228.467732893096
 30
0.0
 40
1.181175547175937
 41
0.0
 71
     1
 72
     2
  1
\fFuturaLtPL-Regular|b0|i0;\H1.1812;\C7; 
  7
STD
 73
     1
 44
1.0
1001
ACAD
1000
MTEXTBEGIN
1070
    73
1070
     1
1070
    44
1040
1.0
1070
    74
1070
     0
1000
MTEXTEND
  0
MTEXT
  5
5EEA
330
A
100
AcDbEntity
  8
LIVELLO_1
 62
     7
370
     0
100
AcDbMText
 10
181.5120903862847
 20
243.0225723028183
 30
0.0
 40
1.181175547175937
 41
0.0
 71
     1
 72
     2
  1
\fFuturaLtPL-Regular|b0|i0;\H1.1812;\C7; 
  7
STD
 73
     1
 44
1.0
1001
ACAD
1000
MTEXTBEGIN
1070
    73
1070
     1
1070
    44
1040
1.0
1070
    74
1070
     0
1000
MTEXTEND
  0
MTEXT
  5
602E
330
A
100
AcDbEntity
  8
LIVELLO_1
 62
     7
370
     0
100
AcDbMText
 10
207.28037109375
 20
243.8292414108912
 30
0.0
 40
1.181175547175937
 41
0.0
 71
     1
 72
     2
  1
\fFuturaLtPL-Regular|b0|i0;\H1.1812;\C7; 
  7
STD
 73
     1
 44
1.0
1001
ACAD
1000
MTEXTBEGIN
1070
    73
1070
     1
1070
    44
1040
1.0
1070
    74
1070
     0
1000
MTEXTEND
  0
SPLINE
  5
AAC9
330
A
100
AcDbEntity
  8
LIVELLO_1
 62
     7
100
AcDbSpline
210
0.0
220
0.0
230
1.0
 70
     8
 71
     3
 72
     8
 73
     4
 74
     0
 42
0.0000000001
 43
0.0000000001
 40
0.0
 40
0.0
 40
0.0
 40
0.0
 40
1.0
 40
1.0
 40
1.0
 40
1.0
 10
76.8504531448714
 20
-15.6402921877569
 30
0.0
 10
76.8504531448714
 20
-15.60136260876388
 30
0.0
 10
76.8845595901839
 20
-15.56725616345139
 30
0.0
 10
76.92383367872557
 20
-15.56725616345139
 30
0.0
  0
LINE
  5
AACA
330
A
100
AcDbEntity
  8
LIVELLO_1
 62
     7
100
AcDbLine
 10
76.92383367872557
 20
-15.56725616345139
 30
0.0
 11
77.19599622212834
 21
-15.56725616345139
 31
0.0
  0
SPLINE
  5
AACB
330
A
100
AcDbEntity
  8
LIVELLO_1
 62
     7
100
AcDbSpline
210
0.0
220
0.0
230
1.0
 70
     8
 71
     3
 72
     8
 73
     4
 74
     0
 42
0.0000000001
 43
0.0000000001
 40
0.0
 40
0.0
 40
0.0
 40
0.0
 40
1.0
 40
1.0
 40
1.0
 40
1.0
 10
76.8504531448714
 20
-15.6402921877569
 30
0.0
 10
76.8504531448714
 20
-15.60136260876388
 30
0.0
 10
76.8845595901839
 20
-15.56725616345139
 30
0.0
 10
76.92383367872557
 20
-15.56725616345139
 30
0.0
  0
SPLINE
  5
AACC
330
A
100
AcDbEntity
  8
LIVELLO_1
 62
     7
100
AcDbSpline
210
0.0
220
0.0
230
1.0
 70
     8
 71
     3
 72
     8
 73
     4
 74
     0
 42
0.0000000001
 43
0.0000000001
 40
0.0
 40
0.0
 40
0.0
 40
0.0
 40
1.0
 40
1.0
 40
1.0
 40
1.0
 10
76.92383367872557
 20
-16.1546449438333
 30
0.0
 10
76.8845595901839
 20
-16.1546449438333
 30
0.0
 10
76.85079765442001
 20
-16.12191653671525
 30
0.0
 10
76.85079765442001
 20
-16.08264244817358
 30
0.0
  0
LINE
  5
AACD
330
A
100
AcDbEntity
  8
LIVELLO_1
 62
     7
100
AcDbLine
 10
76.85079765442001
 20
-16.08264244817358
 30
0.0
 11
76.85079765442001
 21
-15.6402921877569
 31
0.0
  0
SPLINE
  5
AACE
330
A
100
AcDbEntity
  8
LIVELLO_1
 62
     7
100
AcDbSpline
210
0.0
220
0.0
230
1.0
 70
     8
 71
     3
 72
     8
 73
     4
 74
     0
 42
0.0000000001
 43
0.0000000001
 40
0.0
 40
0.0
 40
0.0
 40
0.0
 40
1.0
 40
1.0
 40
1.0
 40
1.0
 10
76.92383367872557
 20
-16.1546449438333
 30
0.0
 10
76.8845595901839
 20
-16.1546449438333
 30
0.0
 10
76.85079765442001
 20
-16.12191653671525
 30
0.0
 10
76.85079765442001
 20
-16.08264244817358
 30
0.0
  0
SPLINE
  5
AACF
330
A
100
AcDbEntity
  8
LIVELLO_1
 62
     7
100
AcDbSpline
210
0.0
220
0.0
230
1.0
 70
     8
 71
     3
 72
     8
 73
     4
 74
     0
 42
0.0000000001
 43
0.0000000001
 40
0.0
 40
0.0
 40
0.0
 40
0.0
 40
1.0
 40
1.0
 40
1.0
 40
1.0
 10
77.03511026292696
 20
-16.12811770859023
 30
0.0
 10
77.03511026292696
 20
-16.14844377195832
 30
0.0
 10
77.02511948601724
 20
-16.16394670164582
 30
0.0
 10
77.01271714226724
 20
-16.16394670164582
 30
0.0
  0
LINE
  5
AAD0
330
A
100
AcDbEntity
  8
LIVELLO_1
 62
     7
100
AcDbLine
 10
77.01271714226724
 20
-16.1546449438333
 30
0.0
 11
76.92383367872557
 21
-16.1546449438333
 31
0.0
  0
MTEXT
  5
AAD1
330
A
100
AcDbEntity
  8
LIVELLO_1
 62
     7
100
AcDbMText
 10
79.2096545337603
 20
-18.24286501297681
 30
0.0
 40
1.181175547175937
 41
0.0
 71
     1
 72
     5
  1
\fFuturaLtPL-Regular|b0|i0;\H1.1812;\C7;90
  7
STD
 73
     1
 44
1.0
1001
ACAD
1000
MTEXTBEGIN
1070
    73
1070
     1
1070
    44
1040
1.0
1070
    74
1070
     0
1000
MTEXTEND
  0
LINE
  5
AAD2
330
A
100
AcDbEntity
  8
LIVELLO_1
 62
     7
100
AcDbLine
 10
77.08265258063528
 20
-20.11926082924996
 30
0.0
 11
83.38683281067003
 21
-20.11926082924996
 31
0.0
  0
LINE
  5
AAD3
330
A
100
AcDbEntity
  8
LIVELLO_1
 62
     7
100
AcDbLine
 10
77.08265258063528
 20
-19.78887617213193
 30
0.0
 11
77.08265258063528
 21
-20.44964548636805
 31
0.0
  0
LINE
  5
AAD4
330
A
100
AcDbEntity
  8
LIVELLO_1
 62
     7
100
AcDbLine
 10
83.38683281067003
 20
-19.78887617213193
 30
0.0
 11
83.38683281067003
 21
-20.44964548636805
 31
0.0
  0
LINE
  5
AAD5
330
A
100
AcDbEntity
  8
LIVELLO_1
 62
     7
100
AcDbLine
 10
114.6290257360172
 20
-15.90522003063885
 30
0.0
 11
114.6290257360172
 21
-9.546262782374959
 31
0.0
  0
LINE
  5
AAD6
330
A
100
AcDbEntity
  8
LIVELLO_1
 62
     7
100
AcDbLine
 10
103.3463380190033
 20
-15.68990156275695
 30
0.0
 11
99.8936633228228
 21
-15.68990156275695
 31
0.0
  0
LINE
  5
AAD7
330
A
100
AcDbEntity
  8
LIVELLO_1
 62
     7
100
AcDbLine
 10
114.3816678801144
 20
-16.17462649765273
 30
0.0
 11
114.3816678801144
 21
-16.10262400199301
 31
0.0
  0
LINE
  5
AAD8
330
A
100
AcDbEntity
  8
LIVELLO_1
 62
     7
100
AcDbLine
 10
114.3816678801144
 20
-16.10262400199301
 30
0.0
 11
114.3816678801144
 21
-15.91624433619442
 31
0.0
  0
LINE
  5
AAD9
330
A
100
AcDbEntity
  8
LIVELLO_1
 62
     7
100
AcDbLine
 10
114.3816678801144
 20
-15.91624433619442
 30
0.0
 11
114.3816678801144
 21
-15.65992923202774
 31
0.0
  0
LINE
  5
AADA
330
A
100
AcDbEntity
  8
LIVELLO_1
 62
     7
100
AcDbLine
 10
114.3816678801144
 20
-15.65992923202774
 30
0.0
 11
114.3816678801144
 21
-15.58758222681943
 31
0.0
  0
LINE
  5
AADB
330
A
100
AcDbEntity
  8
LIVELLO_1
 62
     7
100
AcDbLine
 10
114.3816678801144
 20
-15.58758222681943
 30
0.0
 11
114.3816678801144
 21
-15.51247914522222
 31
0.0
  0
LINE
  5
AADC
330
A
100
AcDbEntity
  8
LIVELLO_1
 62
     7
100
AcDbLine
 10
114.3816678801144
 20
-15.51247914522222
 30
0.0
 11
114.3816678801144
 21
-15.1311070749097
 31
0.0
  0
LINE
  5
AADD
330
A
100
AcDbEntity
  8
LIVELLO_1
 62
     7
100
AcDbLine
 10
114.3816678801144
 20
-15.1311070749097
 30
0.0
 11
114.3816678801144
 21
-15.05669301240969
 31
0.0
  0
LINE
  5
AADE
330
A
100
AcDbEntity
  8
LIVELLO_1
 62
     7
100
AcDbLine
 10
114.3816678801144
 20
-15.05669301240969
 30
0.0
 11
114.3816678801144
 21
-12.97757788654164
 31
0.0
  0
LINE
  5
AADF
330
A
100
AcDbEntity
  8
LIVELLO_1
 62
     7
100
AcDbLine
 10
114.3816678801144
 20
-12.97723337699305
 30
0.0
 11
114.3816678801144
 21
-12.90902048636801
 31
0.0
  0
LINE
  5
AAE0
330
A
100
AcDbEntity
  8
LIVELLO_1
 62
     7
100
AcDbLine
 10
114.3816678801144
 20
-16.17462649765273
 30
0.0
 11
103.3463380190033
 21
-16.17462649765273
 31
0.0
  0
LINE
  5
AAE1
330
A
100
AcDbEntity
  8
LIVELLO_1
 62
     7
100
AcDbLine
 10
103.3463380190033
 20
-16.17462649765273
 30
0.0
 11
103.3463380190033
 21
-16.10262400199301
 31
0.0
  0
LINE
  5
AAE2
330
A
100
AcDbEntity
  8
LIVELLO_1
 62
     7
100
AcDbLine
 10
103.3463380190033
 20
-16.10262400199301
 30
0.0
 11
103.3463380190033
 21
-15.91624433619442
 31
0.0
  0
LINE
  5
AAE3
330
A
100
AcDbEntity
  8
LIVELLO_1
 62
     7
100
AcDbLine
 10
103.3463380190033
 20
-15.91624433619442
 30
0.0
 11
103.3463380190033
 21
-15.65992923202774
 31
0.0
  0
LINE
  5
AAE4
330
A
100
AcDbEntity
  8
LIVELLO_1
 62
     7
100
AcDbLine
 10
103.3463380190033
 20
-15.65992923202774
 30
0.0
 11
103.3463380190033
 21
-15.58758222681943
 31
0.0
  0
LINE
  5
AAE5
330
A
100
AcDbEntity
  8
LIVELLO_1
 62
     7
100
AcDbLine
 10
103.3463380190033
 20
-15.58758222681943
 30
0.0
 11
103.3463380190033
 21
-15.51247914522222
 31
0.0
  0
LINE
  5
AAE6
330
A
100
AcDbEntity
  8
LIVELLO_1
 62
     7
100
AcDbLine
 10
103.3463380190033
 20
-15.51247914522222
 30
0.0
 11
103.3463380190033
 21
-15.1311070749097
 31
0.0
  0
LINE
  5
AAE7
330
A
100
AcDbEntity
  8
LIVELLO_1
 62
     7
100
AcDbLine
 10
103.3463380190033
 20
-15.1311070749097
 30
0.0
 11
103.3463380190033
 21
-15.05669301240969
 31
0.0
  0
LINE
  5
AAE8
330
A
100
AcDbEntity
  8
LIVELLO_1
 62
     7
100
AcDbLine
 10
103.3463380190033
 20
-15.05669301240969
 30
0.0
 11
103.3463380190033
 21
-12.97757788654164
 31
0.0
  0
LINE
  5
AAE9
330
A
100
AcDbEntity
  8
LIVELLO_1
 62
     7
100
AcDbLine
 10
103.3463380190033
 20
-12.97723337699305
 30
0.0
 11
103.3463380190033
 21
-12.90902048636801
 31
0.0
  0
LINE
  5
AAEA
330
A
100
AcDbEntity
  8
LIVELLO_1
 62
     7
100
AcDbLine
 10
114.3816678801144
 20
-12.90902048636801
 30
0.0
 11
103.3463380190033
 21
-12.90902048636801
 31
0.0
  0
LINE
  5
AAEB
330
A
100
AcDbEntity
  8
LIVELLO_1
 62
     7
100
AcDbLine
 10
114.6180014304617
 20
-15.68990156275695
 30
0.0
 11
114.3816678801144
 21
-15.68990156275695
 31
0.0
  0
LINE
  5
AAEC
330
A
100
AcDbEntity
  8
LIVELLO_1
 62
     7
100
AcDbLine
 10
114.6118002585867
 20
-9.557287087930525
 30
0.0
 11
100.9871366301144
 21
-9.557287087930525
 31
0.0
  0
LINE
  5
AAED
330
A
100
AcDbEntity
  8
LIVELLO_1
 62
     7
100
AcDbLine
 10
114.3823568992117
 20
-15.91589982664582
 30
0.0
 11
114.3823568992117
 21
-12.90902048636801
 31
0.0
  0
LINE
  5
AAEE
330
A
100
AcDbEntity
  8
LIVELLO_1
 62
     7
100
AcDbLine
 10
114.6118002585867
 20
-15.91589982664582
 30
0.0
 11
99.82682847039223
 21
-15.91589982664582
 31
0.0
  0
LINE
  5
AAEF
330
A
100
AcDbEntity
  8
LIVELLO_1
 62
     7
100
AcDbLine
 10
114.6118002585867
 20
-9.704737174736102
 30
0.0
 11
100.9271919686561
 21
-9.704737174736102
 31
0.0
  0
SPLINE
  5
AAF0
330
A
100
AcDbEntity
  8
LIVELLO_1
 62
     7
100
AcDbSpline
210
0.0
220
0.0
230
1.0
 70
     8
 71
     3
 72
    11
 73
     7
 74
     0
 42
0.0000000001
 43
0.0000000001
 40
0.0
 40
0.0
 40
0.0
 40
0.0
 40
1.0
 40
1.0
 40
1.0
 40
2.0
 40
2.0
 40
2.0
 40
2.0
 10
101.29581718567
 20
-9.031565516749971
 30
0.0
 10
101.29581718567
 20
-9.031565516749971
 30
0.0
 10
100.5833714391422
 20
-9.695779926472177
 30
0.0
 10
100.5034452238644
 20
-12.23757137612498
 30
0.0
 10
100.4235190085867
 20
-14.78315243081247
 30
0.0
 10
99.79099947733667
 20
-16.39717966605551
 30
0.0
 10
99.26183281067
 20
-16.44196590737497
 30
0.0
  0
SPLINE
  5
AAF1
330
A
100
AcDbEntity
  8
LIVELLO_1
 62
     7
100
AcDbSpline
210
0.0
220
0.0
230
1.0
 70
     8
 71
     3
 72
    11
 73
     7
 74
     0
 42
0.0000000001
 43
0.0000000001
 40
0.0
 40
0.0
 40
0.0
 40
0.0
 40
1.0
 40
1.0
 40
1.0
 40
2.0
 40
2.0
 40
2.0
 40
2.0
 10
98.1387316821978
 20
-16.44162139782637
 30
0.0
 10
98.65549600511446
 20
-16.77510664088195
 30
0.0
 10
99.30110689921168
 20
-14.78349694036107
 30
0.0
 10
99.37965507629503
 20
-12.23757137612498
 30
0.0
 10
99.46027031067002
 20
-9.695435416923579
 30
0.0
 10
100.1720270381005
 20
-9.031221007201374
 30
0.0
 10
100.1720270381005
 20
-9.031221007201374
 30
0.0
  0
SPLINE
  5
AAF2
330
A
100
AcDbEntity
  8
LIVELLO_1
 62
     7
100
AcDbSpline
210
0.0
220
0.0
230
1.0
 70
     8
 71
     3
 72
     8
 73
     4
 74
     0
 42
0.0000000001
 43
0.0000000001
 40
0.0
 40
0.0
 40
0.0
 40
0.0
 40
1.0
 40
1.0
 40
1.0
 40
1.0
 10
79.12283812751031
 20
-9.546951801472211
 30
0.0
 10
79.13903007629503
 20
-9.541095139145831
 30
0.0
 10
79.15625555372557
 20
-9.537650043659688
 30
0.0
 10
79.17348103115611
 20
-9.537650043659688
 30
0.0
  0
LINE
  5
AAF3
330
A
100
AcDbEntity
  8
LIVELLO_1
 62
     7
100
AcDbLine
 10
78.58643676032278
 20
-16.15016631970136
 30
0.0
 11
77.11607000685058
 21
-16.15016631970136
 31
0.0
  0
LINE
  5
AAF4
330
A
100
AcDbEntity
  8
LIVELLO_1
 62
     7
100
AcDbLine
 10
77.48400620476724
 20
-15.27752363306943
 30
0.0
 11
77.48400620476724
 21
-15.25995364609023
 31
0.0
  0
LINE
  5
AAF5
330
A
100
AcDbEntity
  8
LIVELLO_1
 62
     7
100
AcDbLine
 10
78.21850056240612
 20
-15.25995364609023
 30
0.0
 11
78.21850056240612
 21
-15.27752363306943
 31
0.0
  0
LINE
  5
AAF6
330
A
100
AcDbEntity
  8
LIVELLO_1
 62
     7
100
AcDbLine
 10
84.44930025858667
 20
-9.556942578381928
 30
0.0
 11
99.90055351379503
 21
-9.556942578381928
 31
0.0
  0
LINE
  5
AAF7
330
A
100
AcDbEntity
  8
LIVELLO_1
 62
     7
100
AcDbLine
 10
84.67667656067002
 20
-15.91624433619442
 30
0.0
 11
84.67667656067002
 21
-12.90867597681941
 31
0.0
  0
LINE
  5
AAF8
330
A
100
AcDbEntity
  8
LIVELLO_1
 62
     7
100
AcDbLine
 10
84.44930025858667
 20
-15.91624433619442
 30
0.0
 11
98.75953788879503
 21
-15.91624433619442
 31
0.0
  0
LINE
  5
AAF9
330
A
100
AcDbEntity
  8
LIVELLO_1
 62
     7
100
AcDbLine
 10
84.44930025858667
 20
-9.704392665187505
 30
0.0
 11
99.84336492872557
 21
-9.704392665187505
 31
0.0
  0
LINE
  5
AAFA
330
A
100
AcDbEntity
  8
LIVELLO_1
 62
     7
100
AcDbLine
 10
84.44103202942002
 20
-15.91624433619442
 30
0.0
 11
84.44103202942002
 21
-9.556942578381928
 31
0.0
  0
LINE
  5
AAFB
330
A
100
AcDbEntity
  8
LIVELLO_1
 62
     7
100
AcDbLine
 10
95.71476249817001
 20
-15.68990156275695
 30
0.0
 11
98.83601900858668
 21
-15.68990156275695
 31
0.0
  0
LINE
  5
AAFC
330
A
100
AcDbEntity
  8
LIVELLO_1
 62
     7
100
AcDbLine
 10
84.67667656067002
 20
-16.17462649765273
 30
0.0
 11
84.67667656067002
 21
-16.10262400199301
 31
0.0
  0
LINE
  5
AAFD
330
A
100
AcDbEntity
  8
LIVELLO_1
 62
     7
100
AcDbLine
 10
84.67667656067002
 20
-16.10262400199301
 30
0.0
 11
84.67667656067002
 21
-15.91624433619442
 31
0.0
  0
LINE
  5
AAFE
330
A
100
AcDbEntity
  8
LIVELLO_1
 62
     7
100
AcDbLine
 10
84.67667656067002
 20
-15.91624433619442
 30
0.0
 11
84.67667656067002
 21
-15.65992923202774
 31
0.0
  0
LINE
  5
AAFF
330
A
100
AcDbEntity
  8
LIVELLO_1
 62
     7
100
AcDbLine
 10
84.67667656067002
 20
-15.65992923202774
 30
0.0
 11
84.67667656067002
 21
-15.58758222681943
 31
0.0
  0
LINE
  5
AB00
330
A
100
AcDbEntity
  8
LIVELLO_1
 62
     7
100
AcDbLine
 10
84.67667656067002
 20
-15.58758222681943
 30
0.0
 11
84.67667656067002
 21
-15.51247914522222
 31
0.0
  0
LINE
  5
AB01
330
A
100
AcDbEntity
  8
LIVELLO_1
 62
     7
100
AcDbLine
 10
84.67667656067002
 20
-15.51247914522222
 30
0.0
 11
84.67667656067002
 21
-15.1311070749097
 31
0.0
  0
LINE
  5
AB02
330
A
100
AcDbEntity
  8
LIVELLO_1
 62
     7
100
AcDbLine
 10
84.67667656067002
 20
-15.1311070749097
 30
0.0
 11
84.67667656067002
 21
-15.05669301240969
 31
0.0
  0
LINE
  5
AB03
330
A
100
AcDbEntity
  8
LIVELLO_1
 62
     7
100
AcDbLine
 10
84.67667656067002
 20
-15.05669301240969
 30
0.0
 11
84.67667656067002
 21
-12.97792239609024
 31
0.0
  0
LINE
  5
AB04
330
A
100
AcDbEntity
  8
LIVELLO_1
 62
     7
100
AcDbLine
 10
84.67667656067002
 20
-12.97757788654164
 30
0.0
 11
84.67667656067002
 21
-12.90867597681941
 31
0.0
  0
LINE
  5
AB05
330
A
100
AcDbEntity
  8
LIVELLO_1
 62
     7
100
AcDbLine
 10
84.67667656067002
 20
-16.17462649765273
 30
0.0
 11
95.7140734790728
 21
-16.17462649765273
 31
0.0
  0
LINE
  5
AB06
330
A
100
AcDbEntity
  8
LIVELLO_1
 62
     7
100
AcDbLine
 10
95.71476249817001
 20
-16.17462649765273
 30
0.0
 11
95.71476249817001
 21
-16.10262400199301
 31
0.0
  0
LINE
  5
AB07
330
A
100
AcDbEntity
  8
LIVELLO_1
 62
     7
100
AcDbLine
 10
95.71476249817001
 20
-16.10262400199301
 30
0.0
 11
95.71476249817001
 21
-15.91624433619442
 31
0.0
  0
LINE
  5
AB08
330
A
100
AcDbEntity
  8
LIVELLO_1
 62
     7
100
AcDbLine
 10
95.71476249817001
 20
-15.91624433619442
 30
0.0
 11
95.71476249817001
 21
-15.65992923202774
 31
0.0
  0
LINE
  5
AB09
330
A
100
AcDbEntity
  8
LIVELLO_1
 62
     7
100
AcDbLine
 10
95.71476249817001
 20
-15.65992923202774
 30
0.0
 11
95.71476249817001
 21
-15.58758222681943
 31
0.0
  0
LINE
  5
AB0A
330
A
100
AcDbEntity
  8
LIVELLO_1
 62
     7
100
AcDbLine
 10
95.71476249817001
 20
-15.58758222681943
 30
0.0
 11
95.71476249817001
 21
-15.51247914522222
 31
0.0
  0
LINE
  5
AB0B
330
A
100
AcDbEntity
  8
LIVELLO_1
 62
     7
100
AcDbLine
 10
95.71476249817001
 20
-15.51247914522222
 30
0.0
 11
95.71476249817001
 21
-15.1311070749097
 31
0.0
  0
LINE
  5
AB0C
330
A
100
AcDbEntity
  8
LIVELLO_1
 62
     7
100
AcDbLine
 10
95.71476249817001
 20
-15.1311070749097
 30
0.0
 11
95.71476249817001
 21
-15.05669301240969
 31
0.0
  0
LINE
  5
AB0D
330
A
100
AcDbEntity
  8
LIVELLO_1
 62
     7
100
AcDbLine
 10
95.71476249817001
 20
-15.05669301240969
 30
0.0
 11
95.71476249817001
 21
-12.97792239609024
 31
0.0
  0
LINE
  5
AB0E
330
A
100
AcDbEntity
  8
LIVELLO_1
 62
     7
100
AcDbLine
 10
95.71476249817001
 20
-12.97757788654164
 30
0.0
 11
95.71476249817001
 21
-12.90867597681941
 31
0.0
  0
LINE
  5
AB0F
330
A
100
AcDbEntity
  8
LIVELLO_1
 62
     7
100
AcDbLine
 10
84.67667656067002
 20
-12.90867597681941
 30
0.0
 11
95.7140734790728
 21
-12.90867597681941
 31
0.0
  0
LINE
  5
AB10
330
A
100
AcDbEntity
  8
LIVELLO_1
 62
     7
100
AcDbLine
 10
84.44103202942002
 20
-15.68990156275695
 30
0.0
 11
84.67667656067002
 21
-15.68990156275695
 31
0.0
  0
SPLINE
  5
AB11
330
A
100
AcDbEntity
  8
LIVELLO_1
 62
     7
100
AcDbSpline
210
0.0
220
0.0
230
1.0
 70
     8
 71
     3
 72
     8
 73
     4
 74
     0
 42
0.0000000001
 43
0.0000000001
 40
0.0
 40
0.0
 40
0.0
 40
0.0
 40
1.0
 40
1.0
 40
1.0
 40
1.0
 10
79.12283812751031
 20
-9.546951801472211
 30
0.0
 10
79.13903007629503
 20
-9.541095139145831
 30
0.0
 10
79.15625555372557
 20
-9.537650043659688
 30
0.0
 10
79.17348103115611
 20
-9.537650043659688
 30
0.0
  0
SPLINE
  5
AB12
330
A
100
AcDbEntity
  8
LIVELLO_1
 62
     7
100
AcDbSpline
210
0.0
220
0.0
230
1.0
 70
     8
 71
     3
 72
     8
 73
     4
 74
     0
 42
0.0000000001
 43
0.0000000001
 40
0.0
 40
0.0
 40
0.0
 40
0.0
 40
1.0
 40
1.0
 40
1.0
 40
1.0
 10
79.17313652160752
 20
-9.654438780638862
 30
0.0
 10
79.15591104417697
 20
-9.654438780638862
 30
0.0
 10
79.13937458584363
 20
-9.653060742444417
 30
0.0
 10
79.12283812751031
 20
-9.645481532374994
 30
0.0
  0
LINE
  5
AB13
330
A
100
AcDbEntity
  8
LIVELLO_1
 62
     7
100
AcDbLine
 10
79.12283812751031
 20
-9.645481532374994
 30
0.0
 11
78.98537881761447
 21
-9.595872157375005
 31
0.0
  0
LINE
  5
AB14
330
A
100
AcDbEntity
  8
LIVELLO_1
 62
     7
100
AcDbLine
 10
78.98537881761447
 20
-9.596216666923602
 30
0.0
 11
79.12283812751031
 21
-9.546607291923614
 31
0.0
  0
SPLINE
  5
AB15
330
A
100
AcDbEntity
  8
LIVELLO_1
 62
     7
100
AcDbSpline
210
0.0
220
0.0
230
1.0
 70
     8
 71
     3
 72
     8
 73
     4
 74
     0
 42
0.0000000001
 43
0.0000000001
 40
0.0
 40
0.0
 40
0.0
 40
0.0
 40
1.0
 40
1.0
 40
1.0
 40
1.0
 10
79.17313652160752
 20
-9.654438780638862
 30
0.0
 10
79.15591104417697
 20
-9.654438780638862
 30
0.0
 10
79.13937458584363
 20
-9.653060742444417
 30
0.0
 10
79.12283812751031
 20
-9.645481532374994
 30
0.0
  0
SPLINE
  5
AB16
330
A
100
AcDbEntity
  8
LIVELLO_1
 62
     7
100
AcDbSpline
210
0.0
220
0.0
230
1.0
 70
     8
 71
     3
 72
     8
 73
     4
 74
     0
 42
0.0000000001
 43
0.0000000001
 40
0.0
 40
0.0
 40
0.0
 40
0.0
 40
1.0
 40
1.0
 40
1.0
 40
1.0
 10
79.10905774556585
 20
-15.66785295164582
 30
0.0
 10
79.08873168219779
 20
-15.66785295164582
 30
0.0
 10
79.07116169521862
 20
-15.65200551240972
 30
0.0
 10
79.07116169521862
 20
-15.63099042994444
 30
0.0
  0
LINE
  5
AB17
330
A
100
AcDbEntity
  8
LIVELLO_1
 62
     7
100
AcDbLine
 10
79.10905774556585
 20
-15.66785295164582
 30
0.0
 11
80.13535169087834
 21
-15.66785295164582
 31
0.0
  0
LINE
  5
AB18
330
A
100
AcDbEntity
  8
LIVELLO_1
 62
     7
100
AcDbLine
 10
78.84344088358668
 20
-15.92485707490969
 30
0.0
 11
78.84344088358668
 21
-9.558665126124971
 31
0.0
  0
LINE
  5
AB19
330
A
100
AcDbEntity
  8
LIVELLO_1
 62
     7
100
AcDbLine
 10
79.17313652160752
 20
-9.537650043659688
 30
0.0
 11
80.13535169087834
 21
-9.537650043659688
 31
0.0
  0
LINE
  5
AB1A
330
A
100
AcDbEntity
  8
LIVELLO_1
 62
     7
100
AcDbLine
 10
80.13535169087834
 20
-9.654438780638862
 30
0.0
 11
79.17313652160752
 21
-9.654438780638862
 31
0.0
  0
SPLINE
  5
AB1B
330
A
100
AcDbEntity
  8
LIVELLO_1
 62
     7
100
AcDbSpline
210
0.0
220
0.0
230
1.0
 70
     8
 71
     3
 72
     8
 73
     4
 74
     0
 42
0.0000000001
 43
0.0000000001
 40
0.0
 40
0.0
 40
0.0
 40
0.0
 40
1.0
 40
1.0
 40
1.0
 40
1.0
 10
79.10905774556585
 20
-15.66785295164582
 30
0.0
 10
79.08873168219779
 20
-15.66785295164582
 30
0.0
 10
79.07116169521862
 20
-15.65200551240972
 30
0.0
 10
79.07116169521862
 20
-15.63099042994444
 30
0.0
  0
SPLINE
  5
AB1C
330
A
100
AcDbEntity
  8
LIVELLO_1
 62
     7
100
AcDbSpline
210
0.0
220
0.0
230
1.0
 70
     8
 71
     3
 72
     8
 73
     4
 74
     0
 42
0.0000000001
 43
0.0000000001
 40
0.0
 40
0.0
 40
0.0
 40
0.0
 40
1.0
 40
1.0
 40
1.0
 40
1.0
 10
78.98124470303113
 20
-9.537650043659688
 30
0.0
 10
78.99433606587834
 20
-9.537650043659688
 30
0.0
 10
79.00604939053113
 20
-9.549018858763851
 30
0.0
 10
79.00604939053113
 20
-9.561076692965265
 30
0.0
  0
LINE
  5
AB1D
330
A
100
AcDbEntity
  8
LIVELLO_1
 62
     7
100
AcDbLine
 10
79.07116169521862
 20
-11.35941653671526
 30
0.0
 11
79.07116169521862
 21
-15.63030141084719
 31
0.0
  0
SPLINE
  5
AB1E
330
A
100
AcDbEntity
  8
LIVELLO_1
 62
     7
100
AcDbSpline
210
0.0
220
0.0
230
1.0
 70
     8
 71
     3
 72
     8
 73
     4
 74
     0
 42
0.0000000001
 43
0.0000000001
 40
0.0
 40
0.0
 40
0.0
 40
0.0
 40
1.0
 40
1.0
 40
1.0
 40
1.0
 10
78.98124470303113
 20
-9.537650043659688
 30
0.0
 10
78.99433606587834
 20
-9.537650043659688
 30
0.0
 10
79.00604939053113
 20
-9.549018858763851
 30
0.0
 10
79.00604939053113
 20
-9.561076692965265
 30
0.0
  0
SPLINE
  5
AB1F
330
A
100
AcDbEntity
  8
LIVELLO_1
 62
     7
100
AcDbSpline
210
0.0
220
0.0
230
1.0
 70
     8
 71
     3
 72
     8
 73
     4
 74
     0
 42
0.0000000001
 43
0.0000000001
 40
0.0
 40
0.0
 40
0.0
 40
0.0
 40
1.0
 40
1.0
 40
1.0
 40
1.0
 10
78.84344088358668
 20
-9.564521788451351
 30
0.0
 10
78.84344088358668
 20
-9.543506705986068
 30
0.0
 10
78.85377617004502
 20
-9.528003776298568
 30
0.0
 10
78.86548949469778
 20
-9.528003776298568
 30
0.0
  0
LINE
  5
AB20
330
A
100
AcDbEntity
  8
LIVELLO_1
 62
     7
100
AcDbLine
 10
78.86548949469778
 20
-9.537650043659688
 30
0.0
 11
78.9833117603228
 21
-9.537650043659688
 31
0.0
  0
SPLINE
  5
AB21
330
A
100
AcDbEntity
  8
LIVELLO_1
 62
     7
100
AcDbSpline
210
0.0
220
0.0
230
1.0
 70
     8
 71
     3
 72
     8
 73
     4
 74
     0
 42
0.0000000001
 43
0.0000000001
 40
0.0
 40
0.0
 40
0.0
 40
0.0
 40
1.0
 40
1.0
 40
1.0
 40
1.0
 10
78.84344088358668
 20
-9.564521788451351
 30
0.0
 10
78.84344088358668
 20
-9.543506705986068
 30
0.0
 10
78.85377617004502
 20
-9.528003776298568
 30
0.0
 10
78.86548949469778
 20
-9.528003776298568
 30
0.0
  0
INSERT
  5
AB22
330
A
100
AcDbEntity
  8
LIVELLO_1
 62
     7
100
AcDbBlockReference
  2
AI9-BLK32
 10
80.07402899122556
 20
-12.84321916258333
 30
0.0
1001
AEC_XDATA_BOUND_SPACE
1070
   100
1070
     1
  0
SPLINE
  5
AB23
330
A
100
AcDbEntity
  8
LIVELLO_1
 62
     7
100
AcDbSpline
210
0.0
220
0.0
230
1.0
 70
     8
 71
     3
 72
     8
 73
     4
 74
     0
 42
0.0000000001
 43
0.0000000001
 40
0.0
 40
0.0
 40
0.0
 40
0.0
 40
1.0
 40
1.0
 40
1.0
 40
1.0
 10
81.21435559712836
 20
-11.37250789956247
 30
0.0
 10
81.22813597907279
 20
-11.37250789956247
 30
0.0
 10
81.23778224643391
 20
-11.36113908445831
 30
0.0
 10
81.23778224643391
 20
-11.34908125025695
 30
0.0
  0
LINE
  5
AB24
330
A
100
AcDbEntity
  8
LIVELLO_1
 62
     7
100
AcDbLine
 10
81.23778224643391
 20
-11.34977026935414
 30
0.0
 11
81.23778224643391
 21
-9.552463954249994
 31
0.0
  0
SPLINE
  5
AB25
330
A
100
AcDbEntity
  8
LIVELLO_1
 62
     7
100
AcDbSpline
210
0.0
220
0.0
230
1.0
 70
     8
 71
     3
 72
     8
 73
     4
 74
     0
 42
0.0000000001
 43
0.0000000001
 40
0.0
 40
0.0
 40
0.0
 40
0.0
 40
1.0
 40
1.0
 40
1.0
 40
1.0
 10
81.21435559712836
 20
-11.37250789956247
 30
0.0
 10
81.22813597907279
 20
-11.37250789956247
 30
0.0
 10
81.23778224643391
 20
-11.36113908445831
 30
0.0
 10
81.23778224643391
 20
-11.34908125025695
 30
0.0
  0
SPLINE
  5
AB26
330
A
100
AcDbEntity
  8
LIVELLO_1
 62
     7
100
AcDbSpline
210
0.0
220
0.0
230
1.0
 70
     8
 71
     3
 72
     8
 73
     4
 74
     0
 42
0.0000000001
 43
0.0000000001
 40
0.0
 40
0.0
 40
0.0
 40
0.0
 40
1.0
 40
1.0
 40
1.0
 40
1.0
 10
82.98789075337834
 20
-15.10526885876388
 30
0.0
 10
82.98789075337834
 20
-15.06530575112496
 30
0.0
 10
82.9555068558089
 20
-15.03292185355551
 30
0.0
 10
82.91485472907281
 20
-15.03292185355551
 30
0.0
  0
LINE
  5
AB27
330
A
100
AcDbEntity
  8
LIVELLO_1
 62
     7
100
AcDbLine
 10
82.91485472907281
 20
-15.03257734400692
 30
0.0
 11
82.4590685962603
 21
-15.03257734400692
 31
0.0
  0
LINE
  5
AB28
330
A
100
AcDbEntity
  8
LIVELLO_1
 62
     7
100
AcDbLine
 10
82.45941310580889
 20
-15.03257734400692
 30
0.0
 11
81.91439899990612
 21
-15.03257734400692
 31
0.0
  0
LINE
  5
AB29
330
A
100
AcDbEntity
  8
LIVELLO_1
 62
     7
100
AcDbLine
 10
81.91439899990612
 20
-15.03257734400692
 30
0.0
 11
81.44104288011446
 21
-12.93382517386804
 31
0.0
  0
LINE
  5
AB2A
330
A
100
AcDbEntity
  8
LIVELLO_1
 62
     7
100
AcDbLine
 10
81.42243936448947
 20
-15.89729631102083
 30
0.0
 11
80.13052855719781
 21
-15.89729631102083
 31
0.0
  0
LINE
  5
AB2B
330
A
100
AcDbEntity
  8
LIVELLO_1
 62
     7
100
AcDbLine
 10
80.13052855719781
 20
-16.14982181015276
 30
0.0
 11
81.61674274990614
 21
-16.15016631970136
 31
0.0
  0
LINE
  5
AB2C
330
A
100
AcDbEntity
  8
LIVELLO_1
 62
     7
100
AcDbLine
 10
80.13052855719781
 20
-11.37250789956247
 30
0.0
 11
81.21607814487139
 21
-11.37250789956247
 31
0.0
  0
SPLINE
  5
AB2D
330
A
100
AcDbEntity
  8
LIVELLO_1
 62
     7
100
AcDbSpline
210
0.0
220
0.0
230
1.0
 70
     8
 71
     3
 72
     8
 73
     4
 74
     0
 42
0.0000000001
 43
0.0000000001
 40
0.0
 40
0.0
 40
0.0
 40
0.0
 40
1.0
 40
1.0
 40
1.0
 40
1.0
 10
82.98789075337834
 20
-15.10526885876388
 30
0.0
 10
82.98789075337834
 20
-15.06530575112496
 30
0.0
 10
82.9555068558089
 20
-15.03292185355551
 30
0.0
 10
82.91485472907281
 20
-15.03292185355551
 30
0.0
  0
SPLINE
  5
AB2E
330
A
100
AcDbEntity
  8
LIVELLO_1
 62
     7
100
AcDbSpline
210
0.0
220
0.0
230
1.0
 70
     8
 71
     3
 72
     8
 73
     4
 74
     0
 42
0.0000000001
 43
0.0000000001
 40
0.0
 40
0.0
 40
0.0
 40
0.0
 40
1.0
 40
1.0
 40
1.0
 40
1.0
 10
82.98789075337834
 20
-15.4880189672708
 30
0.0
 10
82.98789075337834
 20
-15.52729305581247
 30
0.0
 10
83.02027465094779
 20
-15.56174401067361
 30
0.0
 10
83.06161579678112
 20
-15.56174401067361
 30
0.0
  0
LINE
  5
AB2F
330
A
100
AcDbEntity
  8
LIVELLO_1
 62
     7
100
AcDbLine
 10
82.98789075337834
 20
-15.4880189672708
 30
0.0
 11
82.98789075337834
 21
-15.10526885876388
 31
0.0
  0
SPLINE
  5
AB30
330
A
100
AcDbEntity
  8
LIVELLO_1
 62
     7
100
AcDbSpline
210
0.0
220
0.0
230
1.0
 70
     8
 71
     3
 72
     8
 73
     4
 74
     0
 42
0.0000000001
 43
0.0000000001
 40
0.0
 40
0.0
 40
0.0
 40
0.0
 40
1.0
 40
1.0
 40
1.0
 40
1.0
 10
82.98789075337834
 20
-15.4880189672708
 30
0.0
 10
82.98789075337834
 20
-15.52729305581247
 30
0.0
 10
83.02027465094779
 20
-15.56174401067361
 30
0.0
 10
83.06161579678112
 20
-15.56174401067361
 30
0.0
  0
SPLINE
  5
AB31
330
A
100
AcDbEntity
  8
LIVELLO_1
 62
     7
100
AcDbSpline
210
0.0
220
0.0
230
1.0
 70
     8
 71
     3
 72
     8
 73
     4
 74
     0
 42
0.0000000001
 43
0.0000000001
 40
0.0
 40
0.0
 40
0.0
 40
0.0
 40
1.0
 40
1.0
 40
1.0
 40
1.0
 10
83.40750338358668
 20
-15.63512454452778
 30
0.0
 10
83.40750338358668
 20
-15.5958504559861
 30
0.0
 10
83.37374144782279
 20
-15.56174401067361
 30
0.0
 10
83.3337783401839
 20
-15.56174401067361
 30
0.0
  0
LINE
  5
AB32
330
A
100
AcDbEntity
  8
LIVELLO_1
 62
     7
100
AcDbLine
 10
83.3337783401839
 20
-15.56174401067361
 30
0.0
 11
83.06161579678112
 21
-15.56174401067361
 31
0.0
  0
SPLINE
  5
AB33
330
A
100
AcDbEntity
  8
LIVELLO_1
 62
     7
100
AcDbSpline
210
0.0
220
0.0
230
1.0
 70
     8
 71
     3
 72
     8
 73
     4
 74
     0
 42
0.0000000001
 43
0.0000000001
 40
0.0
 40
0.0
 40
0.0
 40
0.0
 40
1.0
 40
1.0
 40
1.0
 40
1.0
 10
83.40750338358668
 20
-15.63512454452778
 30
0.0
 10
83.40750338358668
 20
-15.5958504559861
 30
0.0
 10
83.37374144782279
 20
-15.56174401067361
 30
0.0
 10
83.3337783401839
 20
-15.56174401067361
 30
0.0
  0
SPLINE
  5
AB34
330
A
100
AcDbEntity
  8
LIVELLO_1
 62
     7
100
AcDbSpline
210
0.0
220
0.0
230
1.0
 70
     8
 71
     3
 72
     8
 73
     4
 74
     0
 42
0.0000000001
 43
0.0000000001
 40
0.0
 40
0.0
 40
0.0
 40
0.0
 40
1.0
 40
1.0
 40
1.0
 40
1.0
 10
83.3337783401839
 20
-16.14947730060417
 30
0.0
 10
83.37374144782279
 20
-16.14947730060417
 30
0.0
 10
83.40750338358668
 20
-16.11640438393747
 30
0.0
 10
83.40750338358668
 20
-16.0771302953958
 30
0.0
  0
LINE
  5
AB35
330
A
100
AcDbEntity
  8
LIVELLO_1
 62
     7
100
AcDbLine
 10
83.40750338358668
 20
-16.0771302953958
 30
0.0
 11
83.40750338358668
 21
-15.63512454452778
 31
0.0
  0
SPLINE
  5
AB36
330
A
100
AcDbEntity
  8
LIVELLO_1
 62
     7
100
AcDbSpline
210
0.0
220
0.0
230
1.0
 70
     8
 71
     3
 72
     8
 73
     4
 74
     0
 42
0.0000000001
 43
0.0000000001
 40
0.0
 40
0.0
 40
0.0
 40
0.0
 40
1.0
 40
1.0
 40
1.0
 40
1.0
 10
83.3337783401839
 20
-16.14947730060417
 30
0.0
 10
83.37374144782279
 20
-16.14947730060417
 30
0.0
 10
83.40750338358668
 20
-16.11640438393747
 30
0.0
 10
83.40750338358668
 20
-16.0771302953958
 30
0.0
  0
SPLINE
  5
AB37
330
A
100
AcDbEntity
  8
LIVELLO_1
 62
     7
100
AcDbSpline
210
0.0
220
0.0
230
1.0
 70
     8
 71
     3
 72
     8
 73
     4
 74
     0
 42
0.0000000001
 43
0.0000000001
 40
0.0
 40
0.0
 40
0.0
 40
0.0
 40
1.0
 40
1.0
 40
1.0
 40
1.0
 10
83.22284626553113
 20
-16.1226055558125
 30
0.0
 10
83.22284626553113
 20
-16.14293161918054
 30
0.0
 10
83.23318155198945
 20
-16.15843454886803
 30
0.0
 10
83.24489487664223
 20
-16.15843454886803
 30
0.0
  0
LINE
  5
AB38
330
A
100
AcDbEntity
  8
LIVELLO_1
 62
     7
100
AcDbLine
 10
83.24489487664223
 20
-16.14947730060417
 30
0.0
 11
83.3337783401839
 21
-16.14947730060417
 31
0.0
  0
SPLINE
  5
AB39
330
A
100
AcDbEntity
  8
LIVELLO_1
 62
     7
100
AcDbSpline
210
0.0
220
0.0
230
1.0
 70
     8
 71
     3
 72
     8
 73
     4
 74
     0
 42
0.0000000001
 43
0.0000000001
 40
0.0
 40
0.0
 40
0.0
 40
0.0
 40
1.0
 40
1.0
 40
1.0
 40
1.0
 10
83.22284626553113
 20
-16.1226055558125
 30
0.0
 10
83.22284626553113
 20
-16.14293161918054
 30
0.0
 10
83.23318155198945
 20
-16.15843454886803
 30
0.0
 10
83.24489487664223
 20
-16.15843454886803
 30
0.0
  0
SPLINE
  5
AB3A
330
A
100
AcDbEntity
  8
LIVELLO_1
 62
     7
100
AcDbSpline
210
0.0
220
0.0
230
1.0
 70
     8
 71
     3
 72
     8
 73
     4
 74
     0
 42
0.0000000001
 43
0.0000000001
 40
0.0
 40
0.0
 40
0.0
 40
0.0
 40
1.0
 40
1.0
 40
1.0
 40
1.0
 10
83.22284626553113
 20
-15.82012617213193
 30
0.0
 10
83.22284626553113
 20
-15.79876658011805
 30
0.0
 10
83.20630980719778
 20
-15.78257463133329
 30
0.0
 10
83.18632825337834
 20
-15.78257463133329
 30
0.0
  0
LINE
  5
AB3B
330
A
100
AcDbEntity
  8
LIVELLO_1
 62
     7
100
AcDbLine
 10
83.22284626553113
 20
-15.82012617213193
 30
0.0
 11
83.22284626553113
 21
-16.12811770859023
 31
0.0
  0
SPLINE
  5
AB3C
330
A
100
AcDbEntity
  8
LIVELLO_1
 62
     7
100
AcDbSpline
210
0.0
220
0.0
230
1.0
 70
     8
 71
     3
 72
     8
 73
     4
 74
     0
 42
0.0000000001
 43
0.0000000001
 40
0.0
 40
0.0
 40
0.0
 40
0.0
 40
1.0
 40
1.0
 40
1.0
 40
1.0
 10
83.22284626553113
 20
-15.82012617213193
 30
0.0
 10
83.22284626553113
 20
-15.79876658011805
 30
0.0
 10
83.20630980719778
 20
-15.78257463133329
 30
0.0
 10
83.18632825337834
 20
-15.78257463133329
 30
0.0
  0
SPLINE
  5
AB3D
330
A
100
AcDbEntity
  8
LIVELLO_1
 62
     7
100
AcDbSpline
210
0.0
220
0.0
230
1.0
 70
     8
 71
     3
 72
     8
 73
     4
 74
     0
 42
0.0000000001
 43
0.0000000001
 40
0.0
 40
0.0
 40
0.0
 40
0.0
 40
1.0
 40
1.0
 40
1.0
 40
1.0
 10
82.76947169955889
 20
-15.75604739609023
 30
0.0
 10
82.77084973775334
 20
-15.78601972681944
 30
0.0
 10
82.77429483323945
 20
-15.80324520424998
 30
0.0
 10
82.77636189053112
 20
-15.80324520424998
 30
0.0
  0
LINE
  5
AB3E
330
A
100
AcDbEntity
  8
LIVELLO_1
 62
     7
100
AcDbLine
 10
82.77636189053112
 20
-15.78257463133329
 30
0.0
 11
83.18701727247557
 21
-15.78257463133329
 31
0.0
  0
SPLINE
  5
AB3F
330
A
100
AcDbEntity
  8
LIVELLO_1
 62
     7
100
AcDbSpline
210
0.0
220
0.0
230
1.0
 70
     8
 71
     3
 72
     8
 73
     4
 74
     0
 42
0.0000000001
 43
0.0000000001
 40
0.0
 40
0.0
 40
0.0
 40
0.0
 40
1.0
 40
1.0
 40
1.0
 40
1.0
 10
82.76947169955889
 20
-15.75604739609023
 30
0.0
 10
82.77084973775334
 20
-15.78601972681944
 30
0.0
 10
82.77429483323945
 20
-15.80324520424998
 30
0.0
 10
82.77636189053112
 20
-15.80324520424998
 30
0.0
  0
SPLINE
  5
AB40
330
A
100
AcDbEntity
  8
LIVELLO_1
 62
     7
100
AcDbSpline
210
0.0
220
0.0
230
1.0
 70
     8
 71
     3
 72
     8
 73
     4
 74
     0
 42
0.0000000001
 43
0.0000000001
 40
0.0
 40
0.0
 40
0.0
 40
0.0
 40
1.0
 40
1.0
 40
1.0
 40
1.0
 10
82.6578506058089
 20
-15.6602737415764
 30
0.0
 10
82.6578506058089
 20
-15.66647491345137
 30
0.0
 10
82.65922864400335
 20
-15.6737096139722
 30
0.0
 10
82.66336275858668
 20
-15.67956627629858
 30
0.0
  0
LINE
  5
AB41
330
A
100
AcDbEntity
  8
LIVELLO_1
 62
     7
100
AcDbLine
 10
82.66336275858668
 20
-15.67887725720138
 30
0.0
 11
82.76189248948947
 21
-15.77706247855551
 31
0.0
  0
SPLINE
  5
AB42
330
A
100
AcDbEntity
  8
LIVELLO_1
 62
     7
100
AcDbSpline
210
0.0
220
0.0
230
1.0
 70
     8
 71
     3
 72
     8
 73
     4
 74
     0
 42
0.0000000001
 43
0.0000000001
 40
0.0
 40
0.0
 40
0.0
 40
0.0
 40
1.0
 40
1.0
 40
1.0
 40
1.0
 10
82.6578506058089
 20
-15.6602737415764
 30
0.0
 10
82.6578506058089
 20
-15.66647491345137
 30
0.0
 10
82.65922864400335
 20
-15.6737096139722
 30
0.0
 10
82.66336275858668
 20
-15.67956627629858
 30
0.0
  0
SPLINE
  5
AB43
330
A
100
AcDbEntity
  8
LIVELLO_1
 62
     7
100
AcDbSpline
210
0.0
220
0.0
230
1.0
 70
     8
 71
     3
 72
     8
 73
     4
 74
     0
 42
0.0000000001
 43
0.0000000001
 40
0.0
 40
0.0
 40
0.0
 40
0.0
 40
1.0
 40
1.0
 40
1.0
 40
1.0
 10
82.68127725511446
 20
-15.56174401067361
 30
0.0
 10
82.66749687317002
 20
-15.56174401067361
 30
0.0
 10
82.65716158671168
 20
-15.57173478758333
 30
0.0
 10
82.65716158671168
 20
-15.58654869817358
 30
0.0
  0
LINE
  5
AB44
330
A
100
AcDbEntity
  8
LIVELLO_1
 62
     7
100
AcDbLine
 10
82.65716158671168
 20
-15.58379262178469
 30
0.0
 11
82.65716158671168
 21
-15.66406334661108
 31
0.0
  0
SPLINE
  5
AB45
330
A
100
AcDbEntity
  8
LIVELLO_1
 62
     7
100
AcDbSpline
210
0.0
220
0.0
230
1.0
 70
     8
 71
     3
 72
     8
 73
     4
 74
     0
 42
0.0000000001
 43
0.0000000001
 40
0.0
 40
0.0
 40
0.0
 40
0.0
 40
1.0
 40
1.0
 40
1.0
 40
1.0
 10
82.68127725511446
 20
-15.56174401067361
 30
0.0
 10
82.66749687317002
 20
-15.56174401067361
 30
0.0
 10
82.65716158671168
 20
-15.57173478758333
 30
0.0
 10
82.65716158671168
 20
-15.58654869817358
 30
0.0
  0
SPLINE
  5
AB46
330
A
100
AcDbEntity
  8
LIVELLO_1
 62
     7
100
AcDbSpline
210
0.0
220
0.0
230
1.0
 70
     8
 71
     3
 72
     8
 73
     4
 74
     0
 42
0.0000000001
 43
0.0000000001
 40
0.0
 40
0.0
 40
0.0
 40
0.0
 40
1.0
 40
1.0
 40
1.0
 40
1.0
 10
82.17174763271861
 20
-15.58758222681943
 30
0.0
 10
82.17174763271861
 20
-15.56966773029163
 30
0.0
 10
82.16313489400334
 20
-15.55278676240969
 30
0.0
 10
82.15073255025334
 20
-15.55278676240969
 30
0.0
  0
LINE
  5
AB47
330
A
100
AcDbEntity
  8
LIVELLO_1
 62
     7
100
AcDbLine
 10
82.15073255025334
 20
-15.56174401067361
 30
0.0
 11
82.03945596605198
 21
-15.56174401067361
 31
0.0
  0
LINE
  5
AB48
330
A
100
AcDbEntity
  8
LIVELLO_1
 62
     7
100
AcDbLine
 10
82.03945596605198
 20
-15.56174401067361
 30
0.0
 11
82.03945596605198
 21
-15.25202992647221
 31
0.0
  0
LINE
  5
AB49
330
A
100
AcDbEntity
  8
LIVELLO_1
 62
     7
100
AcDbLine
 10
82.03945596605198
 20
-15.25202992647221
 30
0.0
 11
82.79014227247557
 21
-15.25202992647221
 31
0.0
  0
LINE
  5
AB4A
330
A
100
AcDbEntity
  8
LIVELLO_1
 62
     7
100
AcDbLine
 10
82.78945325337835
 20
-15.25202992647221
 30
0.0
 11
82.78945325337835
 21
-15.56174401067361
 31
0.0
  0
LINE
  5
AB4B
330
A
100
AcDbEntity
  8
LIVELLO_1
 62
     7
100
AcDbLine
 10
82.78945325337835
 20
-15.56174401067361
 30
0.0
 11
82.67989921692
 21
-15.56174401067361
 31
0.0
  0
SPLINE
  5
AB4C
330
A
100
AcDbEntity
  8
LIVELLO_1
 62
     7
100
AcDbSpline
210
0.0
220
0.0
230
1.0
 70
     8
 71
     3
 72
     8
 73
     4
 74
     0
 42
0.0000000001
 43
0.0000000001
 40
0.0
 40
0.0
 40
0.0
 40
0.0
 40
1.0
 40
1.0
 40
1.0
 40
1.0
 10
82.17174763271861
 20
-15.58758222681943
 30
0.0
 10
82.17174763271861
 20
-15.56966773029163
 30
0.0
 10
82.16313489400334
 20
-15.55278676240969
 30
0.0
 10
82.15073255025334
 20
-15.55278676240969
 30
0.0
  0
SPLINE
  5
AB4D
330
A
100
AcDbEntity
  8
LIVELLO_1
 62
     7
100
AcDbSpline
210
0.0
220
0.0
230
1.0
 70
     8
 71
     3
 72
     8
 73
     4
 74
     0
 42
0.0000000001
 43
0.0000000001
 40
0.0
 40
0.0
 40
0.0
 40
0.0
 40
1.0
 40
1.0
 40
1.0
 40
1.0
 10
82.16520195129502
 20
-15.67887725720138
 30
0.0
 10
82.16933606587835
 20
-15.6733651044236
 30
0.0
 10
82.17140312317003
 20
-15.66716393254857
 30
0.0
 10
82.17140312317003
 20
-15.66199628931944
 30
0.0
  0
LINE
  5
AB4E
330
A
100
AcDbEntity
  8
LIVELLO_1
 62
     7
100
AcDbLine
 10
82.17140312317003
 20
-15.66371883706248
 30
0.0
 11
82.17140312317003
 21
-15.58344811223609
 31
0.0
  0
SPLINE
  5
AB4F
330
A
100
AcDbEntity
  8
LIVELLO_1
 62
     7
100
AcDbSpline
210
0.0
220
0.0
230
1.0
 70
     8
 71
     3
 72
     8
 73
     4
 74
     0
 42
0.0000000001
 43
0.0000000001
 40
0.0
 40
0.0
 40
0.0
 40
0.0
 40
1.0
 40
1.0
 40
1.0
 40
1.0
 10
82.16520195129502
 20
-15.67887725720138
 30
0.0
 10
82.16933606587835
 20
-15.6733651044236
 30
0.0
 10
82.17140312317003
 20
-15.66716393254857
 30
0.0
 10
82.17140312317003
 20
-15.66199628931944
 30
0.0
  0
SPLINE
  5
AB50
330
A
100
AcDbEntity
  8
LIVELLO_1
 62
     7
100
AcDbSpline
210
0.0
220
0.0
230
1.0
 70
     8
 71
     3
 72
     8
 73
     4
 74
     0
 42
0.0000000001
 43
0.0000000001
 40
0.0
 40
0.0
 40
0.0
 40
0.0
 40
1.0
 40
1.0
 40
1.0
 40
1.0
 10
82.05116929070474
 20
-15.78257463133329
 30
0.0
 10
82.05771497212834
 20
-15.78257463133329
 30
0.0
 10
82.06426065355197
 20
-15.77947404539581
 30
0.0
 10
82.06873927768389
 20
-15.77568444036107
 30
0.0
  0
LINE
  5
AB51
330
A
100
AcDbEntity
  8
LIVELLO_1
 62
     7
100
AcDbLine
 10
82.06873927768389
 20
-15.77637345945832
 30
0.0
 11
82.16554646084361
 21
-15.67887725720138
 31
0.0
  0
SPLINE
  5
AB52
330
A
100
AcDbEntity
  8
LIVELLO_1
 62
     7
100
AcDbSpline
210
0.0
220
0.0
230
1.0
 70
     8
 71
     3
 72
     8
 73
     4
 74
     0
 42
0.0000000001
 43
0.0000000001
 40
0.0
 40
0.0
 40
0.0
 40
0.0
 40
1.0
 40
1.0
 40
1.0
 40
1.0
 10
82.05116929070474
 20
-15.78257463133329
 30
0.0
 10
82.05771497212834
 20
-15.78257463133329
 30
0.0
 10
82.06426065355197
 20
-15.77947404539581
 30
0.0
 10
82.06873927768389
 20
-15.77568444036107
 30
0.0
  0
SPLINE
  5
AB53
330
A
100
AcDbEntity
  8
LIVELLO_1
 62
     7
100
AcDbSpline
210
0.0
220
0.0
230
1.0
 70
     8
 71
     3
 72
     8
 73
     4
 74
     0
 42
0.0000000001
 43
0.0000000001
 40
0.0
 40
0.0
 40
0.0
 40
0.0
 40
1.0
 40
1.0
 40
1.0
 40
1.0
 10
81.64223645650336
 20
-15.78257463133329
 30
0.0
 10
81.62225490268388
 20
-15.78257463133329
 30
0.0
 10
81.6064074634478
 20
-15.79911108966664
 30
0.0
 10
81.6064074634478
 20
-15.81978166258333
 30
0.0
  0
LINE
  5
AB54
330
A
100
AcDbEntity
  8
LIVELLO_1
 62
     7
100
AcDbLine
 10
81.64223645650336
 20
-15.78257463133329
 30
0.0
 11
82.05254732889917
 21
-15.78257463133329
 31
0.0
  0
SPLINE
  5
AB55
330
A
100
AcDbEntity
  8
LIVELLO_1
 62
     7
100
AcDbSpline
210
0.0
220
0.0
230
1.0
 70
     8
 71
     3
 72
     8
 73
     4
 74
     0
 42
0.0000000001
 43
0.0000000001
 40
0.0
 40
0.0
 40
0.0
 40
0.0
 40
1.0
 40
1.0
 40
1.0
 40
1.0
 10
81.64223645650336
 20
-15.78257463133329
 30
0.0
 10
81.62225490268388
 20
-15.78257463133329
 30
0.0
 10
81.6064074634478
 20
-15.79911108966664
 30
0.0
 10
81.6064074634478
 20
-15.81978166258333
 30
0.0
  0
SPLINE
  5
AB56
330
A
100
AcDbEntity
  8
LIVELLO_1
 62
     7
100
AcDbSpline
210
0.0
220
0.0
230
1.0
 70
     8
 71
     3
 72
     8
 73
     4
 74
     0
 42
0.0000000001
 43
0.0000000001
 40
0.0
 40
0.0
 40
0.0
 40
0.0
 40
1.0
 40
1.0
 40
1.0
 40
1.0
 10
81.5819472854964
 20
-16.14947730060417
 30
0.0
 10
81.594694138795
 20
-16.14947730060417
 30
0.0
 10
81.6064074634478
 20
-16.1387975045972
 30
0.0
 10
81.6064074634478
 20
-16.1253616322014
 30
0.0
  0
LINE
  5
AB57
330
A
100
AcDbEntity
  8
LIVELLO_1
 62
     7
100
AcDbLine
 10
81.6064074634478
 20
-16.12811770859023
 30
0.0
 11
81.6064074634478
 21
-15.81978166258333
 31
0.0
  0
SPLINE
  5
AB58
330
A
100
AcDbEntity
  8
LIVELLO_1
 62
     7
100
AcDbSpline
210
0.0
220
0.0
230
1.0
 70
     8
 71
     3
 72
     8
 73
     4
 74
     0
 42
0.0000000001
 43
0.0000000001
 40
0.0
 40
0.0
 40
0.0
 40
0.0
 40
1.0
 40
1.0
 40
1.0
 40
1.0
 10
81.5819472854964
 20
-16.14947730060417
 30
0.0
 10
81.594694138795
 20
-16.14947730060417
 30
0.0
 10
81.6064074634478
 20
-16.1387975045972
 30
0.0
 10
81.6064074634478
 20
-16.1253616322014
 30
0.0
  0
MTEXT
  5
AB59
330
A
100
AcDbEntity
  8
LIVELLO_1
 62
     7
100
AcDbMText
 10
73.6118665733899
 20
-13.60682457707984
 30
0.0
 40
1.181175547175937
 41
0.0
 71
     1
 72
     5
  1
\fFuturaLtPL-Regular|b0|i0;\H1.1812;\C7;90
  7
STD
 11
-0.0000000000000001
 21
1.0
 31
0.0
 73
     1
 44
1.0
1001
ACAD
1000
MTEXTBEGIN
1070
    73
1070
     1
1070
    44
1040
1.0
1070
    74
1070
     0
1000
MTEXTEND
  0
LINE
  5
AB5A
330
A
100
AcDbEntity
  8
LIVELLO_1
 62
     7
100
AcDbLine
 10
75.58575859192001
 20
-16.1077916452222
 30
0.0
 11
75.58575859192001
 21
-9.549018858763851
 31
0.0
  0
LINE
  5
AB5B
330
A
100
AcDbEntity
  8
LIVELLO_1
 62
     7
100
AcDbLine
 10
75.25502942525335
 20
-16.1077916452222
 30
0.0
 11
75.91579873948948
 21
-16.1077916452222
 31
0.0
  0
LINE
  5
AB5C
330
A
100
AcDbEntity
  8
LIVELLO_1
 62
     7
100
AcDbLine
 10
75.25502942525335
 20
-9.549018858763851
 30
0.0
 11
75.91579873948948
 21
-9.549018858763851
 31
0.0
  0
MTEXT
  5
AB5D
330
A
100
AcDbEntity
  8
LIVELLO_1
 62
     7
100
AcDbMText
 10
79.2096545337603
 20
-5.74302506071988
 30
0.0
 40
1.181175547175937
 41
0.0
 71
     1
 72
     5
  1
\fFuturaLtPL-Regular|b0|i0;\H1.1812;\C7;35
  7
STD
 73
     1
 44
1.0
1001
ACAD
1000
MTEXTBEGIN
1070
    73
1070
     1
1070
    44
1040
1.0
1070
    74
1070
     0
1000
MTEXTEND
  0
LINE
  5
AB5E
330
A
100
AcDbEntity
  8
LIVELLO_1
 62
     7
100
AcDbLine
 10
78.87548027160753
 20
-7.719328646090254
 30
0.0
 11
81.43759778462834
 21
-7.719328646090254
 31
0.0
  0
LINE
  5
AB5F
330
A
100
AcDbEntity
  8
LIVELLO_1
 62
     7
100
AcDbLine
 10
78.87548027160753
 20
-7.388943988972222
 30
0.0
 11
78.87548027160753
 21
-8.049713303208342
 31
0.0
  0
LINE
  5
AB60
330
A
100
AcDbEntity
  8
LIVELLO_1
 62
     7
100
AcDbLine
 10
81.43759778462834
 20
-7.388943988972222
 30
0.0
 11
81.43759778462834
 21
-8.049713303208342
 31
0.0
  0
MTEXT
  5
AB61
330
A
100
AcDbEntity
  8
LIVELLO_1
 62
     7
100
AcDbMText
 10
97.59750718132975
 20
-18.13331097651846
 30
0.0
 40
1.181175547175937
 41
0.0
 71
     1
 72
     5
  1
\fFuturaLtPL-Regular|b0|i0;\H1.1812;\C7;1000
  7
STD
 73
     1
 44
1.0
1001
ACAD
1000
MTEXTBEGIN
1070
    73
1070
     1
1070
    44
1040
1.0
1070
    74
1070
     0
1000
MTEXTEND
  0
LINE
  5
AB62
330
A
100
AcDbEntity
  8
LIVELLO_1
 62
     7
100
AcDbLine
 10
84.46445867872558
 20
-20.10995907143749
 30
0.0
 11
114.4870878019894
 21
-20.10995907143749
 31
0.0
  0
LINE
  5
AB63
330
A
100
AcDbEntity
  8
LIVELLO_1
 62
     7
100
AcDbLine
 10
84.46445867872558
 20
-19.7795744143194
 30
0.0
 11
84.46445867872558
 21
-20.44034372855553
 31
0.0
  0
LINE
  5
AB64
330
A
100
AcDbEntity
  8
LIVELLO_1
 62
     7
100
AcDbLine
 10
114.4870878019894
 20
-19.7795744143194
 30
0.0
 11
114.4870878019894
 21
-20.44034372855553
 31
0.0
  0
POLYLINE
  5
AB65
330
A
100
AcDbEntity
  8
LIVELLO_1
 62
     7
100
AcDb2dPolyline
 66
     1
 10
0.0
 20
0.0
 30
0.0
 70
     1
  0
VERTEX
  5
AB66
330
AB65
100
AcDbEntity
  8
LIVELLO_1
 62
     7
100
AcDbVertex
100
AcDb2dVertex
 10
73.02536362664224
 20
-23.2546422311597
 30
0.0
  0
VERTEX
  5
AB67
330
AB65
100
AcDbEntity
  8
LIVELLO_1
 62
     7
100
AcDbVertex
100
AcDb2dVertex
 10
116.9372397117117
 20
-23.2546422311597
 30
0.0
  0
VERTEX
  5
AB68
330
AB65
100
AcDbEntity
  8
LIVELLO_1
 62
     7
100
AcDbVertex
100
AcDb2dVertex
 10
116.9372397117117
 20
-2.843140495048579
 30
0.0
  0
VERTEX
  5
AB69
330
AB65
100
AcDbEntity
  8
LIVELLO_1
 62
     7
100
AcDbVertex
100
AcDb2dVertex
 10
73.02536362664224
 20
-2.843140495048579
 30
0.0
  0
SEQEND
  5
AB6A
330
AB65
100
AcDbEntity
  8
LIVELLO_1
 62
     7
  0
ENDSEC
  0
SECTION
  2
OBJECTS
  0
DICTIONARY
  5
19
330
0
100
AcDbDictionary
281
     1
  3
ACAD_BACKGROUND
350
93A8
  3
ACAD_COLOR
350
45C4
  3
ACAD_GROUP
350
1A
  3
ACAD_LAYOUT
350
1E
  3
ACAD_MATERIAL
350
459A
  3
ACAD_MLEADERSTYLE
350
45DD
  3
ACAD_MLINESTYLE
350
1B
  3
ACAD_PLOTSETTINGS
350
22
  3
ACAD_PLOTSTYLENAME
350
1F
  3
ACAD_SCALELIST
350
45C7
  3
ACAD_TABLESTYLE
350
45C5
  3
ACAD_VISUALSTYLE
350
45B3
  3
ACAD_WIPEOUT_VARS
350
23
  3
ACDB_RECOMPOSE_DATA
350
AB70
  3
AcDbVariableDictionary
350
7C3D
  3
AEC_PROPERTY_SET_DEFS
350
7EB5
  3
DWGPROPS
350
AB71
  0
DICTIONARY
  5
7C4A
330
14
100
AcDbDictionary
280
     1
281
     1
  3
ADSK_XREC_LAYER_RECONCILED
360
7C4B
  0
DICTIONARY
  5
7C4C
330
28
100
AcDbDictionary
280
     1
281
     1
  3
ADSK_XREC_LAYER_RECONCILED
360
7C4D
  0
DICTIONARY
  5
46B6
330
A
100
AcDbDictionary
280
     1
281
     1
  3
ACAD_SORTENTS
360
46B7
  0
DICTIONARY
  5
93A8
102
{ACAD_REACTORS
330
19
102
}
330
19
100
AcDbDictionary
281
     1
  0
DICTIONARY
  5
45C4
102
{ACAD_REACTORS
330
19
102
}
330
19
100
AcDbDictionary
281
     1
  0
DICTIONARY
  5
1A
102
{ACAD_REACTORS
330
19
102
}
330
19
100
AcDbDictionary
281
     1
  0
DICTIONARY
  5
1E
102
{ACAD_REACTORS
330
19
102
}
330
19
100
AcDbDictionary
281
     1
  3
Layout1
350
21
  3
Model
350
20
  0
DICTIONARY
  5
459A
102
{ACAD_REACTORS
330
19
102
}
330
19
100
AcDbDictionary
281
     1
  3
ByBlock
350
45A3
  3
ByLayer
350
459B
  3
Global
350
45AB
  0
DICTIONARY
  5
45DD
102
{ACAD_REACTORS
330
19
102
}
330
19
100
AcDbDictionary
281
     1
  3
Standard
350
45DE
  0
DICTIONARY
  5
1B
102
{ACAD_REACTORS
330
19
102
}
330
19
100
AcDbDictionary
281
     1
  3
Standard
350
1C
  0
DICTIONARY
  5
22
102
{ACAD_REACTORS
330
19
102
}
330
19
100
AcDbDictionary
281
     1
  0
ACDBDICTIONARYWDFLT
  5
1F
102
{ACAD_REACTORS
330
19
102
}
330
19
100
AcDbDictionary
281
     1
  3
Normal
350
1D
100
AcDbDictionaryWithDefault
340
1D
  0
DICTIONARY
  5
45C7
102
{ACAD_REACTORS
330
19
102
}
330
19
100
AcDbDictionary
281
     1
  3
A0
350
45C8
  3
A1
350
45C9
  3
A2
350
45CA
  3
A3
350
45CB
  3
A4
350
45CC
  3
A5
350
45CD
  3
A6
350
45CE
  3
A7
350
45CF
  3
A8
350
45D0
  3
A9
350
45D1
  3
B0
350
45D2
  3
B1
350
45D3
  3
B2
350
45D4
  3
B3
350
45D5
  3
B4
350
45D6
  3
B5
350
45D7
  3
B6
350
45D8
  3
B7
350
45D9
  3
B8
350
45DA
  3
B9
350
45DB
  3
C0
350
45DC
  0
DICTIONARY
  5
45C5
102
{ACAD_REACTORS
330
19
102
}
330
19
100
AcDbDictionary
281
     1
  3
Standard
350
45C6
  0
DICTIONARY
  5
45B3
102
{ACAD_REACTORS
330
19
102
}
330
19
100
AcDbDictionary
281
     1
  3
2dWireframe
350
45B9
  3
3D Hidden
350
45BB
  3
3dWireframe
350
45BA
  3
Basic
350
45B8
  3
Brighten
350
45BF
  3
ColorChange
350
45C3
  3
Conceptual
350
45BC
  3
Dim
350
45BE
  3
EdgeColorOff
350
A86C
  3
Facepattern
350
45C2
  3
Flat
350
45B4
  3
FlatWithEdges
350
45B5
  3
Gouraud
350
45B6
  3
GouraudWithEdges
350
45B7
  3
Hidden
350
A864
  3
JitterOff
350
A86A
  3
Linepattern
350
45C1
  3
OverhangOff
350
A86B
  3
Realistic
350
45BD
  3
Shaded
350
A869
  3
Shaded with edges
350
A868
  3
Shades of Gray
350
A865
  3
Sketchy
350
A866
  3
Thicken
350
45C0
  3
Wireframe
350
A863
  3
X-Ray
350
A867
  0
WIPEOUTVARIABLES
  5
23
330
19
100
AcDbWipeoutVariables
 70
     1
  0
XRECORD
  5
AB70
102
{ACAD_REACTORS
330
19
102
}
330
19
100
AcDbXrecord
280
     1
 90
        1
330
45C6
  0
DICTIONARY
  5
7C3D
102
{ACAD_REACTORS
330
19
102
}
330
19
100
AcDbDictionary
281
     1
  3
CANNOSCALE
350
7C41
  3
CMLEADERSTYLE
350
7C3F
  3
CTABLESTYLE
350
7C3E
  3
DIMASSOC
350
9381
  3
INDEXCTL
350
9380
  3
LAYEREVAL
350
7C43
  3
LAYERNOTIFY
350
7C44
  3
LIGHTINGUNITS
350
7C42
  3
MSLTSCALE
350
7C40
  3
SORTENTS
350
937F
  3
XCLIPFRAME
350
AB6E
  0
DICTIONARY
  5
7EB5
102
{ACAD_REACTORS
330
19
102
}
330
19
100
AcDbDictionary
281
     1
  0
XRECORD
  5
AB71
102
{ACAD_REACTORS
330
19
102
}
330
19
100
AcDbXrecord
280
     1
  1
DWGPROPS COOKIE
  2

  3

  4

  6

  7

  8
ngardoni
  9

300
=
301
=
302
=
303
=
304
=
305
=
306
=
307
=
308
=
309
=
 40
0.0346046759259259
 41
2454936.341354908
 42
2455617.597189873
  1

 90
        0
  0
XRECORD
  5
7C4B
102
{ACAD_REACTORS
330
7C4A
102
}
330
7C4A
100
AcDbXrecord
280
     1
290
     1
  0
XRECORD
  5
7C4D
102
{ACAD_REACTORS
330
7C4C
102
}
330
7C4C
100
AcDbXrecord
280
     1
290
     1
  0
SORTENTSTABLE
  5
46B7
102
{ACAD_REACTORS
330
46B6
102
}
330
46B6
100
AcDbSortentsTable
330
A
331
5EEA
  5
5CA8
331
5EE4
  5
5CB0
331
5E9C
  5
5D3A
331
602E
  5
5B31
331
5D5E
  5
5EB3
331
5D58
  5
5EBB
  0
LAYOUT
  5
21
102
{ACAD_XDICTIONARY
360
AB74
102
}
102
{ACAD_REACTORS
330
1E
102
}
330
1E
100
AcDbPlotSettings
  1

  2

  4

  6

 40
0.0
 41
0.0
 42
0.0
 43
0.0
 44
0.0
 45
0.0
 46
0.0
 47
0.0
 48
0.0
 49
0.0
140
0.0
141
0.0
142
1.0
143
1.0
 70
     0
 72
     0
 73
     0
 74
     0
  7

 75
     0
147
1.0
148
0.0
149
0.0
100
AcDbLayout
  1
Layout1
 70
     0
 71
     1
 10
0.0
 20
0.0
 11
12.0
 21
9.0
 12
0.0
 22
0.0
 32
0.0
 14
1.000000000000000E+20
 24
1.000000000000000E+20
 34
1.000000000000000E+20
 15
-1.000000000000000E+20
 25
-1.000000000000000E+20
 35
-1.000000000000000E+20
146
0.0
 13
0.0
 23
0.0
 33
0.0
 16
1.0
 26
0.0
 36
0.0
 17
0.0
 27
1.0
 37
0.0
 76
     0
330
B
  0
LAYOUT
  5
20
102
{ACAD_XDICTIONARY
360
AB72
102
}
102
{ACAD_REACTORS
330
1E
102
}
330
1E
100
AcDbPlotSettings
  1

  2

  4

  6

 40
0.0
 41
0.0
 42
0.0
 43
0.0
 44
0.0
 45
0.0
 46
0.0
 47
0.0
 48
0.0
 49
0.0
140
0.0
141
0.0
142
1.0
143
1.0
 70
  1024
 72
     0
 73
     0
 74
     0
  7

 75
     0
147
1.0
148
0.0
149
0.0
100
AcDbLayout
  1
Model
 70
     0
 71
     0
 10
0.0
 20
0.0
 11
0.0
 21
0.0
 12
0.0
 22
0.0
 32
0.0
 14
0.0
 24
0.0
 34
0.0
 15
0.0
 25
0.0
 35
0.0
146
0.0
 13
0.0
 23
0.0
 33
0.0
 16
0.0
 26
0.0
 36
0.0
 17
0.0
 27
0.0
 37
0.0
 76
     0
330
A
331
15
  0
MATERIAL
  5
45A3
102
{ACAD_XDICTIONARY
360
45A4
102
}
102
{ACAD_REACTORS
330
459A
102
}
330
459A
100
AcDbMaterial
  1
ByBlock
 72
     0
 43
0.0208333333333333
 43
0.0
 43
0.0
 43
0.0
 43
0.0
 43
0.0208333333333333
 43
0.0
 43
0.0
 43
0.0
 43
0.0
 43
1.0
 43
0.0
 43
0.0
 43
0.0
 43
0.0
 43
1.0
 77
     0
 47
0.0208333333333333
 47
0.0
 47
0.0
 47
0.0
 47
0.0
 47
0.0208333333333333
 47
0.0
 47
0.0
 47
0.0
 47
0.0
 47
1.0
 47
0.0
 47
0.0
 47
0.0
 47
0.0
 47
1.0
171
     0
 49
0.0208333333333333
 49
0.0
 49
0.0
 49
0.0
 49
0.0
 49
0.0208333333333333
 49
0.0
 49
0.0
 49
0.0
 49
0.0
 49
1.0
 49
0.0
 49
0.0
 49
0.0
 49
0.0
 49
1.0
175
     0
142
0.0208333333333333
142
0.0
142
0.0
142
0.0
142
0.0
142
0.0208333333333333
142
0.0
142
0.0
142
0.0
142
0.0
142
1.0
142
0.0
142
0.0
142
0.0
142
0.0
142
1.0
179
     0
144
0.0208333333333333
144
0.0
144
0.0
144
0.0
144
0.0
144
0.0208333333333333
144
0.0
144
0.0
144
0.0
144
0.0
144
1.0
144
0.0
144
0.0
144
0.0
144
0.0
144
1.0
147
0.0208333333333333
147
0.0
147
0.0
147
0.0
147
0.0
147
0.0208333333333333
147
0.0
147
0.0
147
0.0
147
0.0
147
1.0
147
0.0
147
0.0
147
0.0
147
0.0
147
1.0
  0
MATERIAL
  5
459B
102
{ACAD_XDICTIONARY
360
459C
102
}
102
{ACAD_REACTORS
330
459A
102
}
330
459A
100
AcDbMaterial
  1
ByLayer
 72
     0
 43
0.0208333333333333
 43
0.0
 43
0.0
 43
0.0
 43
0.0
 43
0.0208333333333333
 43
0.0
 43
0.0
 43
0.0
 43
0.0
 43
1.0
 43
0.0
 43
0.0
 43
0.0
 43
0.0
 43
1.0
 77
     0
 47
0.0208333333333333
 47
0.0
 47
0.0
 47
0.0
 47
0.0
 47
0.0208333333333333
 47
0.0
 47
0.0
 47
0.0
 47
0.0
 47
1.0
 47
0.0
 47
0.0
 47
0.0
 47
0.0
 47
1.0
171
     0
 49
0.0208333333333333
 49
0.0
 49
0.0
 49
0.0
 49
0.0
 49
0.0208333333333333
 49
0.0
 49
0.0
 49
0.0
 49
0.0
 49
1.0
 49
0.0
 49
0.0
 49
0.0
 49
0.0
 49
1.0
175
     0
142
0.0208333333333333
142
0.0
142
0.0
142
0.0
142
0.0
142
0.0208333333333333
142
0.0
142
0.0
142
0.0
142
0.0
142
1.0
142
0.0
142
0.0
142
0.0
142
0.0
142
1.0
179
     0
144
0.0208333333333333
144
0.0
144
0.0
144
0.0
144
0.0
144
0.0208333333333333
144
0.0
144
0.0
144
0.0
144
0.0
144
1.0
144
0.0
144
0.0
144
0.0
144
0.0
144
1.0
147
0.0208333333333333
147
0.0
147
0.0
147
0.0
147
0.0
147
0.0208333333333333
147
0.0
147
0.0
147
0.0
147
0.0
147
1.0
147
0.0
147
0.0
147
0.0
147
0.0
147
1.0
  0
MATERIAL
  5
45AB
102
{ACAD_XDICTIONARY
360
45AC
102
}
102
{ACAD_REACTORS
330
459A
102
}
330
459A
100
AcDbMaterial
  1
Global
 72
     0
 43
0.0208333333333333
 43
0.0
 43
0.0
 43
0.0
 43
0.0
 43
0.0208333333333333
 43
0.0
 43
0.0
 43
0.0
 43
0.0
 43
1.0
 43
0.0
 43
0.0
 43
0.0
 43
0.0
 43
1.0
 77
     0
 47
0.0208333333333333
 47
0.0
 47
0.0
 47
0.0
 47
0.0
 47
0.0208333333333333
 47
0.0
 47
0.0
 47
0.0
 47
0.0
 47
1.0
 47
0.0
 47
0.0
 47
0.0
 47
0.0
 47
1.0
171
     0
 49
0.0208333333333333
 49
0.0
 49
0.0
 49
0.0
 49
0.0
 49
0.0208333333333333
 49
0.0
 49
0.0
 49
0.0
 49
0.0
 49
1.0
 49
0.0
 49
0.0
 49
0.0
 49
0.0
 49
1.0
175
     0
142
0.0208333333333333
142
0.0
142
0.0
142
0.0
142
0.0
142
0.0208333333333333
142
0.0
142
0.0
142
0.0
142
0.0
142
1.0
142
0.0
142
0.0
142
0.0
142
0.0
142
1.0
179
     0
144
0.0208333333333333
144
0.0
144
0.0
144
0.0
144
0.0
144
0.0208333333333333
144
0.0
144
0.0
144
0.0
144
0.0
144
1.0
144
0.0
144
0.0
144
0.0
144
0.0
144
1.0
147
0.0208333333333333
147
0.0
147
0.0
147
0.0
147
0.0
147
0.0208333333333333
147
0.0
147
0.0
147
0.0
147
0.0
147
1.0
147
0.0
147
0.0
147
0.0
147
0.0
147
1.0
  0
MLEADERSTYLE
  5
45DE
102
{ACAD_REACTORS
330
45DD
102
}
330
45DD
100
AcDbMLeaderStyle
170
     2
171
     1
172
     0
 90
        2
 40
0.0
 41
0.0
173
     1
 91
-1056964608
340
11
 92
       -2
290
     1
 42
2.0
291
     1
 43
0.36
  3
Standard
 44
4.0
300

342
17
174
     1
178
     6
175
     1
176
     0
 93
-1056964608
 45
4.0
292
     0
297
     0
 46
4.0
 94
-1056964608
 47
1.0
 49
1.0
140
1.0
293
     1
141
0.0
294
     1
177
     0
142
1.0
295
     0
296
     0
143
0.125
1001
ACAD_MLEADERVER
1070
     2
  0
MLINESTYLE
  5
1C
102
{ACAD_REACTORS
330
1B
102
}
330
1B
100
AcDbMlineStyle
  2
STANDARD
 70
     0
  3

 62
     0
 51
90.0
 52
90.0
 71
     2
 49
0.5
 62
   256
  6
BYLAYER
 49
-0.5
 62
   256
  6
BYLAYER
  0
ACDBPLACEHOLDER
  5
1D
102
{ACAD_REACTORS
330
1F
102
}
330
1F
  0
SCALE
  5
45C8
102
{ACAD_REACTORS
330
45C7
102
}
330
45C7
100
AcDbScale
 70
     0
300
1:1
140
1.0
141
1.0
290
     1
  0
SCALE
  5
45C9
102
{ACAD_REACTORS
330
45C7
102
}
330
45C7
100
AcDbScale
 70
     0
300
1:2
140
1.0
141
2.0
290
     0
  0
SCALE
  5
45CA
102
{ACAD_REACTORS
330
45C7
102
}
330
45C7
100
AcDbScale
 70
     0
300
1:2.5
140
1.0
141
2.5
290
     0
  0
SCALE
  5
45CB
102
{ACAD_REACTORS
330
45C7
102
}
330
45C7
100
AcDbScale
 70
     0
300
1:5
140
1.0
141
5.0
290
     0
  0
SCALE
  5
45CC
102
{ACAD_REACTORS
330
45C7
102
}
330
45C7
100
AcDbScale
 70
     0
300
1:7.5
140
1.0
141
7.5
290
     0
  0
SCALE
  5
45CD
102
{ACAD_REACTORS
330
45C7
102
}
330
45C7
100
AcDbScale
 70
     0
300
1:10
140
1.0
141
10.0
290
     0
  0
SCALE
  5
45CE
102
{ACAD_REACTORS
330
45C7
102
}
330
45C7
100
AcDbScale
 70
     0
300
1:20
140
1.0
141
20.0
290
     0
  0
SCALE
  5
45CF
102
{ACAD_REACTORS
330
45C7
102
}
330
45C7
100
AcDbScale
 70
     0
300
1:25
140
1.0
141
25.0
290
     0
  0
SCALE
  5
45D0
102
{ACAD_REACTORS
330
45C7
102
}
330
45C7
100
AcDbScale
 70
     0
300
1:50
140
1.0
141
50.0
290
     0
  0
SCALE
  5
45D1
102
{ACAD_REACTORS
330
45C7
102
}
330
45C7
100
AcDbScale
 70
     0
300
1:75
140
1.0
141
75.0
290
     0
  0
SCALE
  5
45D2
102
{ACAD_REACTORS
330
45C7
102
}
330
45C7
100
AcDbScale
 70
     0
300
1:100
140
1.0
141
100.0
290
     0
  0
SCALE
  5
45D3
102
{ACAD_REACTORS
330
45C7
102
}
330
45C7
100
AcDbScale
 70
     0
300
1:150
140
1.0
141
150.0
290
     0
  0
SCALE
  5
45D4
102
{ACAD_REACTORS
330
45C7
102
}
330
45C7
100
AcDbScale
 70
     0
300
1:200
140
1.0
141
200.0
290
     0
  0
SCALE
  5
45D5
102
{ACAD_REACTORS
330
45C7
102
}
330
45C7
100
AcDbScale
 70
     0
300
1:250
140
1.0
141
250.0
290
     0
  0
SCALE
  5
45D6
102
{ACAD_REACTORS
330
45C7
102
}
330
45C7
100
AcDbScale
 70
     0
300
1:500
140
1.0
141
500.0
290
     0
  0
SCALE
  5
45D7
102
{ACAD_REACTORS
330
45C7
102
}
330
45C7
100
AcDbScale
 70
     0
300
1:750
140
1.0
141
750.0
290
     0
  0
SCALE
  5
45D8
102
{ACAD_REACTORS
330
45C7
102
}
330
45C7
100
AcDbScale
 70
     0
300
1:1000
140
1.0
141
1000.0
290
     0
  0
SCALE
  5
45D9
102
{ACAD_REACTORS
330
45C7
102
}
330
45C7
100
AcDbScale
 70
     0
300
1:1250
140
1.0
141
1250.0
290
     0
  0
SCALE
  5
45DA
102
{ACAD_REACTORS
330
45C7
102
}
330
45C7
100
AcDbScale
 70
     0
300
1:2000
140
1.0
141
2000.0
290
     0
  0
SCALE
  5
45DB
102
{ACAD_REACTORS
330
45C7
102
}
330
45C7
100
AcDbScale
 70
     0
300
1:2500
140
1.0
141
2500.0
290
     0
  0
SCALE
  5
45DC
102
{ACAD_REACTORS
330
45C7
102
}
330
45C7
100
AcDbScale
 70
     0
300
1:5000
140
1.0
141
5000.0
290
     0
  0
TABLESTYLE
  5
45C6
102
{ACAD_XDICTIONARY
360
7C3A
102
}
102
{ACAD_REACTORS
330
45C5
102
}
330
45C5
100
AcDbTableStyle
  3
Standard
 70
     0
 71
     0
 40
1.5
 41
1.5
280
     0
281
     0
  7
Standard
140
4.5
170
     2
 62
     0
 63
     7
283
     0
274
    -2
284
     1
 64
     0
275
    -2
285
     1
 65
     0
276
    -2
286
     1
 66
     0
277
    -2
287
     1
 67
     0
278
    -2
288
     1
 68
     0
279
    -2
289
     1
 69
     0
  7
Standard
140
6.0
170
     5
 62
     0
 63
     7
283
     0
274
    -2
284
     1
 64
     0
275
    -2
285
     1
 65
     0
276
    -2
286
     1
 66
     0
277
    -2
287
     1
 67
     0
278
    -2
288
     1
 68
     0
279
    -2
289
     1
 69
     0
  7
Standard
140
4.5
170
     5
 62
     0
 63
     7
283
     0
274
    -2
284
     1
 64
     0
275
    -2
285
     1
 65
     0
276
    -2
286
     1
 66
     0
277
    -2
287
     1
 67
     0
278
    -2
288
     1
 68
     0
279
    -2
289
     1
 69
     0
  0
VISUALSTYLE
  5
45B9
102
{ACAD_XDICTIONARY
360
AB80
102
}
102
{ACAD_REACTORS
330
45B3
102
}
330
45B3
100
AcDbVisualStyle
  2

 70
     4
 71
     0
 72
     2
 73
     0
 90
        0
 40
-0.6
 41
-30.0
 62
     5
 63
     7
 74
     1
 91
        4
 64
     7
 65
   257
 75
     1
175
     1
 42
1.0
 92
        0
 66
   257
 43
1.0
 76
     1
 77
     6
 78
     2
 67
     7
 79
     5
170
     0
171
     0
290
     0
174
     0
 93
        1
 44
0.0
173
     0
291
     0
 45
0.0
1001
ACAD
1000
AcDbSavedByObjectVersion
1070
     0
  0
VISUALSTYLE
  5
45BB
102
{ACAD_XDICTIONARY
360
AB84
102
}
102
{ACAD_REACTORS
330
45B3
102
}
330
45B3
100
AcDbVisualStyle
  2

 70
     6
 71
     1
 72
     2
 73
     2
 90
        0
 40
-0.6
 41
-30.0
 62
     5
 63
     7
 74
     2
 91
        2
 64
     7
 65
   257
 75
     2
175
     1
 42
40.0
 92
        0
 66
   257
 43
1.0
 76
     1
 77
     6
 78
     2
 67
     7
 79
     3
170
     0
171
     0
290
     0
174
     0
 93
        1
 44
0.0
173
     0
291
     0
 45
0.0
1001
ACAD
1000
AcDbSavedByObjectVersion
1070
     0
  0
VISUALSTYLE
  5
45BA
102
{ACAD_XDICTIONARY
360
AB82
102
}
102
{ACAD_REACTORS
330
45B3
102
}
330
45B3
100
AcDbVisualStyle
  2

 70
     5
 71
     0
 72
     2
 73
     0
 90
        0
 40
-0.6
 41
-30.0
 62
     5
 63
     7
 74
     1
 91
        4
 64
     7
 65
   257
 75
     1
175
     1
 42
1.0
 92
        0
 66
   257
 43
1.0
 76
     1
 77
     6
 78
     2
 67
     7
 79
     5
170
     0
171
     0
290
     0
174
     0
 93
        1
 44
0.0
173
     0
291
     0
 45
0.0
1001
ACAD
1000
AcDbSavedByObjectVersion
1070
     0
  0
VISUALSTYLE
  5
45B8
102
{ACAD_XDICTIONARY
360
AB7E
102
}
102
{ACAD_REACTORS
330
45B3
102
}
330
45B3
100
AcDbVisualStyle
  2

 70
     7
 71
     1
 72
     0
 73
     1
 90
        0
 40
-0.6
 41
-30.0
 62
     5
 63
     7
 74
     0
 91
        4
 64
     7
 65
   257
 75
     1
175
     1
 42
1.0
 92
        8
 66
     7
 43
1.0
 76
     1
 77
     6
 78
     2
 67
     7
 79
     5
170
     0
171
     0
290
     0
174
     0
 93
        1
 44
0.0
173
     0
291
     1
 45
0.0
1001
ACAD
1000
AcDbSavedByObjectVersion
1070
     0
  0
VISUALSTYLE
  5
45BF
102
{ACAD_XDICTIONARY
360
AB8C
102
}
102
{ACAD_REACTORS
330
45B3
102
}
330
45B3
100
AcDbVisualStyle
  2

 70
    12
 71
     2
 72
     2
 73
     0
 90
        0
 40
-0.6
 41
-30.0
 62
     5
 63
     7
 74
     1
 91
        4
 64
     7
 65
   257
 75
     1
175
     1
 42
1.0
 92
        8
 66
     7
 43
1.0
 76
     1
 77
     6
 78
     2
 67
     7
 79
     5
170
     0
171
     0
290
     0
174
     0
 93
        1
 44
50.0
173
     0
291
     1
 45
0.0
1001
ACAD
1000
AcDbSavedByObjectVersion
1070
     0
  0
VISUALSTYLE
  5
45C3
102
{ACAD_XDICTIONARY
360
AB94
102
}
102
{ACAD_REACTORS
330
45B3
102
}
330
45B3
100
AcDbVisualStyle
  2

 70
    16
 71
     2
 72
     2
 73
     3
 90
        0
 40
-0.6
 41
-30.0
 62
     5
 63
     8
 74
     1
 91
        4
 64
     7
 65
   257
 75
     1
175
     1
 42
1.0
 92
        8
 66
     8
 43
1.0
 76
     1
 77
     6
 78
     2
 67
     7
 79
     5
170
     0
171
     0
290
     0
174
     0
 93
        1
 44
0.0
173
     0
291
     1
 45
0.0
1001
ACAD
1000
AcDbSavedByObjectVersion
1070
     0
  0
VISUALSTYLE
  5
45BC
102
{ACAD_XDICTIONARY
360
AB86
102
}
102
{ACAD_REACTORS
330
45B3
102
}
330
45B3
100
AcDbVisualStyle
  2

 70
     9
 71
     3
 72
     2
 73
     0
 90
        0
 40
-0.6
 41
-30.0
 62
     5
 63
     7
 74
     2
 91
        2
 64
     7
 65
   257
 75
     1
175
     1
 42
40.0
 92
        8
 66
     7
 43
1.0
 76
     1
 77
     6
 78
     2
 67
     7
 79
     3
170
     0
171
     0
290
     0
174
     0
 93
        1
 44
0.0
173
     0
291
     0
 45
0.0
1001
ACAD
1000
AcDbSavedByObjectVersion
1070
     0
  0
VISUALSTYLE
  5
45BE
102
{ACAD_XDICTIONARY
360
AB8A
102
}
102
{ACAD_REACTORS
330
45B3
102
}
330
45B3
100
AcDbVisualStyle
  2

 70
    11
 71
     2
 72
     2
 73
     0
 90
        0
 40
-0.6
 41
-30.0
 62
     5
 63
     7
 74
     1
 91
        4
 64
     7
 65
   257
 75
     1
175
     1
 42
1.0
 92
        8
 66
     7
 43
1.0
 76
     1
 77
     6
 78
     2
 67
     7
 79
     5
170
     0
171
     0
290
     0
174
     0
 93
        1
 44
-50.0
173
     0
291
     1
 45
0.0
1001
ACAD
1000
AcDbSavedByObjectVersion
1070
     0
  0
VISUALSTYLE
  5
A86C
102
{ACAD_XDICTIONARY
360
ABA9
102
}
102
{ACAD_REACTORS
330
45B3
102
}
330
45B3
100
AcDbVisualStyle
  2

 70
    22
 71
     2
 72
     2
 73
     0
 90
        0
 40
-0.6
 41
-30.0
 62
     5
 63
     7
 74
     1
 91
        4
 64
     7
 65
   257
 75
     1
175
     1
 42
1.0
 92
        8
 66
     7
 43
1.0
 76
     1
 77
     6
 78
     2
 67
     7
 79
     5
170
     0
171
     0
290
     0
174
     0
 93
        1
 44
0.0
173
     0
291
     1
 45
0.0
1001
ACAD
1000
AcDbSavedByObjectVersion
1070
     0
  0
VISUALSTYLE
  5
45C2
102
{ACAD_XDICTIONARY
360
AB92
102
}
102
{ACAD_REACTORS
330
45B3
102
}
330
45B3
100
AcDbVisualStyle
  2

 70
    15
 71
     2
 72
     2
 73
     0
 90
        0
 40
-0.6
 41
-30.0
 62
     5
 63
     7
 74
     1
 91
        4
 64
     7
 65
   257
 75
     1
175
     1
 42
1.0
 92
        8
 66
     7
 43
1.0
 76
     1
 77
     6
 78
     2
 67
     7
 79
     5
170
     0
171
     0
290
     0
174
     0
 93
        1
 44
0.0
173
     0
291
     1
 45
0.0
1001
ACAD
1000
AcDbSavedByObjectVersion
1070
     0
  0
VISUALSTYLE
  5
45B4
102
{ACAD_XDICTIONARY
360
AB76
102
}
102
{ACAD_REACTORS
330
45B3
102
}
330
45B3
100
AcDbVisualStyle
  2

 70
     0
 71
     2
 72
     1
 73
     1
 90
        2
 40
-0.6
 41
30.0
 62
     5
 63
     7
 74
     0
 91
        4
 64
     7
 65
   257
 75
     1
175
     1
 42
1.0
 92
        8
 66
     7
 43
1.0
 76
     1
 77
     6
 78
     2
 67
     7
 79
     5
170
     0
171
     0
290
     0
174
     0
 93
       13
 44
0.0
173
     0
291
     1
 45
0.0
1001
ACAD
1000
AcDbSavedByObjectVersion
1070
     0
  0
VISUALSTYLE
  5
45B5
102
{ACAD_XDICTIONARY
360
AB78
102
}
102
{ACAD_REACTORS
330
45B3
102
}
330
45B3
100
AcDbVisualStyle
  2

 70
     1
 71
     2
 72
     1
 73
     1
 90
        2
 40
-0.6
 41
30.0
 62
     5
 63
     7
 74
     1
 91
        4
 64
     7
 65
   257
 75
     1
175
     1
 42
1.0
 92
        0
 66
   257
 43
1.0
 76
     1
 77
     6
 78
     2
 67
     7
 79
     5
170
     0
171
     0
290
     0
174
     0
 93
       13
 44
0.0
173
     0
291
     1
 45
0.0
1001
ACAD
1000
AcDbSavedByObjectVersion
1070
     0
  0
VISUALSTYLE
  5
45B6
102
{ACAD_XDICTIONARY
360
AB7A
102
}
102
{ACAD_REACTORS
330
45B3
102
}
330
45B3
100
AcDbVisualStyle
  2

 70
     2
 71
     2
 72
     2
 73
     1
 90
        2
 40
-0.6
 41
30.0
 62
     5
 63
     7
 74
     0
 91
        4
 64
     7
 65
   257
 75
     1
175
     1
 42
1.0
 92
        0
 66
     7
 43
1.0
 76
     1
 77
     6
 78
     2
 67
     7
 79
     5
170
     0
171
     0
290
     0
174
     0
 93
       13
 44
0.0
173
     0
291
     1
 45
0.0
1001
ACAD
1000
AcDbSavedByObjectVersion
1070
     0
  0
VISUALSTYLE
  5
45B7
102
{ACAD_XDICTIONARY
360
AB7C
102
}
102
{ACAD_REACTORS
330
45B3
102
}
330
45B3
100
AcDbVisualStyle
  2

 70
     3
 71
     2
 72
     2
 73
     1
 90
        2
 40
-0.6
 41
30.0
 62
     5
 63
     7
 74
     1
 91
        4
 64
     7
 65
   257
 75
     1
175
     1
 42
1.0
 92
        0
 66
   257
 43
1.0
 76
     1
 77
     6
 78
     2
 67
     7
 79
     5
170
     0
171
     0
290
     0
174
     0
 93
       13
 44
0.0
173
     0
291
     1
 45
0.0
1001
ACAD
1000
AcDbSavedByObjectVersion
1070
     0
  0
VISUALSTYLE
  5
A864
102
{ACAD_XDICTIONARY
360
AB99
102
}
102
{ACAD_REACTORS
330
45B3
102
}
330
45B3
100
AcDbVisualStyle
  2

 70
     6
 71
     1
 72
     2
 73
     2
 90
        0
 40
-0.6
 41
-30.0
 62
     5
 63
     7
 74
     2
 91
        2
 64
     7
 65
   257
 75
     2
175
     1
 42
40.0
 92
        0
 66
   257
 43
1.0
 76
     1
 77
     6
 78
     2
 67
     7
 79
     3
170
     0
171
     0
290
     0
174
     0
 93
        1
 44
0.0
173
     0
291
     0
 45
0.0
1001
ACAD
1000
AcDbSavedByObjectVersion
1070
     0
  0
VISUALSTYLE
  5
A86A
102
{ACAD_XDICTIONARY
360
ABA5
102
}
102
{ACAD_REACTORS
330
45B3
102
}
330
45B3
100
AcDbVisualStyle
  2

 70
    20
 71
     2
 72
     2
 73
     0
 90
        0
 40
-0.6
 41
-30.0
 62
     5
 63
     7
 74
     1
 91
        4
 64
     7
 65
   257
 75
     1
175
     1
 42
1.0
 92
       10
 66
     7
 43
1.0
 76
     1
 77
     6
 78
     2
 67
     7
 79
     5
170
     0
171
     0
290
     0
174
     0
 93
        1
 44
0.0
173
     0
291
     1
 45
0.0
1001
ACAD
1000
AcDbSavedByObjectVersion
1070
     0
  0
VISUALSTYLE
  5
45C1
102
{ACAD_XDICTIONARY
360
AB90
102
}
102
{ACAD_REACTORS
330
45B3
102
}
330
45B3
100
AcDbVisualStyle
  2

 70
    14
 71
     2
 72
     2
 73
     0
 90
        0
 40
-0.6
 41
-30.0
 62
     5
 63
     7
 74
     1
 91
        4
 64
     7
 65
   257
 75
     7
175
     7
 42
1.0
 92
        8
 66
     7
 43
1.0
 76
     1
 77
     6
 78
     2
 67
     7
 79
     5
170
     0
171
     0
290
     0
174
     0
 93
        1
 44
0.0
173
     0
291
     1
 45
0.0
1001
ACAD
1000
AcDbSavedByObjectVersion
1070
     0
  0
VISUALSTYLE
  5
A86B
102
{ACAD_XDICTIONARY
360
ABA7
102
}
102
{ACAD_REACTORS
330
45B3
102
}
330
45B3
100
AcDbVisualStyle
  2

 70
    21
 71
     2
 72
     2
 73
     0
 90
        0
 40
-0.6
 41
-30.0
 62
     5
 63
     7
 74
     1
 91
        4
 64
     7
 65
   257
 75
     1
175
     1
 42
1.0
 92
        9
 66
     7
 43
1.0
 76
     1
 77
     6
 78
     2
 67
     7
 79
     5
170
     0
171
     0
290
     0
174
     0
 93
        1
 44
0.0
173
     0
291
     1
 45
0.0
1001
ACAD
1000
AcDbSavedByObjectVersion
1070
     0
  0
VISUALSTYLE
  5
45BD
102
{ACAD_XDICTIONARY
360
AB88
102
}
102
{ACAD_REACTORS
330
45B3
102
}
330
45B3
100
AcDbVisualStyle
  2

 70
     8
 71
     2
 72
     2
 73
     0
 90
        0
 40
-0.6
 41
-30.0
 62
     5
 63
     7
 74
     1
 91
        0
 64
     7
 65
   257
 75
     1
175
     1
 42
1.0
 92
        8
 66
     8
 43
1.0
 76
     1
 77
     6
 78
     2
 67
     7
 79
     5
170
     0
171
     0
290
     0
174
     0
 93
       13
 44
0.0
173
     0
291
     0
 45
0.0
1001
ACAD
1000
AcDbSavedByObjectVersion
1070
     0
  0
VISUALSTYLE
  5
A869
102
{ACAD_XDICTIONARY
360
ABA3
102
}
102
{ACAD_REACTORS
330
45B3
102
}
330
45B3
100
AcDbVisualStyle
  2

 70
    27
 71
     2
 72
     2
 73
     1
 90
        2
 40
-0.6
 41
30.0
 62
     5
 63
     7
 74
     0
 91
        4
 64
     7
 65
   257
 75
     1
175
     1
 42
1.0
 92
        8
 66
   257
 43
1.0
 76
     1
 77
     6
 78
     2
 67
     8
 79
     3
170
     0
171
     0
290
     0
174
     0
 93
        5
 44
0.0
173
     0
291
     0
 45
0.0
1001
ACAD
1000
AcDbSavedByObjectVersion
1070
     0
  0
VISUALSTYLE
  5
A868
102
{ACAD_XDICTIONARY
360
ABA1
102
}
102
{ACAD_REACTORS
330
45B3
102
}
330
45B3
100
AcDbVisualStyle
  2

 70
    26
 71
     2
 72
     2
 73
     1
 90
        2
 40
-0.6
 41
30.0
 62
     5
 63
     7
 74
     1
 91
       10
 64
     7
 65
   257
 75
     2
175
     1
 42
1.0
 92
        8
 66
   257
 43
1.0
 76
     1
 77
     6
 78
     2
 67
     7
 79
     3
170
     0
171
     0
290
     0
174
     0
 93
        5
 44
0.0
173
     0
291
     0
 45
0.0
1001
ACAD
1000
AcDbSavedByObjectVersion
1070
     0
  0
VISUALSTYLE
  5
A865
102
{ACAD_XDICTIONARY
360
AB9B
102
}
102
{ACAD_REACTORS
330
45B3
102
}
330
45B3
100
AcDbVisualStyle
  2

 70
    23
 71
     2
 72
     2
 73
     3
 90
        0
 40
-0.6
 41
-30.0
 62
     5
 63
     7
 74
     2
 91
        2
 64
     7
 65
     7
 75
     1
175
     1
 42
40.0
 92
        8
 66
     7
 43
1.0
 76
     1
 77
     6
 78
     2
 67
     7
 79
     3
170
     0
171
     0
290
     0
174
     0
 93
        1
 44
0.0
173
     0
291
     0
 45
0.0
1001
ACAD
1000
AcDbSavedByObjectVersion
1070
     0
  0
VISUALSTYLE
  5
A866
102
{ACAD_XDICTIONARY
360
AB9D
102
}
102
{ACAD_REACTORS
330
45B3
102
}
330
45B3
100
AcDbVisualStyle
  2

 70
    24
 71
     1
 72
     2
 73
     2
 90
        0
 40
-0.6
 41
-30.0
 62
     5
 63
     7
 74
     2
 91
        2
 64
     7
 65
     7
 75
     1
175
     1
 42
40.0
 92
       11
 66
     7
 43
1.0
 76
     1
 77
     6
 78
     2
 67
     7
 79
     6
170
     0
171
     0
290
     0
174
     0
 93
        1
 44
0.0
173
     0
291
     0
 45
0.0
1001
ACAD
1000
AcDbSavedByObjectVersion
1070
     0
  0
VISUALSTYLE
  5
45C0
102
{ACAD_XDICTIONARY
360
AB8E
102
}
102
{ACAD_REACTORS
330
45B3
102
}
330
45B3
100
AcDbVisualStyle
  2

 70
    13
 71
     2
 72
     2
 73
     0
 90
        0
 40
-0.6
 41
-30.0
 62
     5
 63
     7
 74
     1
 91
        4
 64
     7
 65
   257
 75
     1
175
     1
 42
1.0
 92
       12
 66
     7
 43
1.0
 76
     1
 77
     6
 78
     2
 67
     7
 79
     5
170
     0
171
     0
290
     0
174
     0
 93
        1
 44
0.0
173
     0
291
     1
 45
0.0
1001
ACAD
1000
AcDbSavedByObjectVersion
1070
     0
  0
VISUALSTYLE
  5
A863
102
{ACAD_XDICTIONARY
360
AB97
102
}
102
{ACAD_REACTORS
330
45B3
102
}
330
45B3
100
AcDbVisualStyle
  2

 70
     5
 71
     0
 72
     2
 73
     0
 90
        0
 40
-0.6
 41
-30.0
 62
     5
 63
     7
 74
     1
 91
        4
 64
     7
 65
   257
 75
     1
175
     1
 42
1.0
 92
        0
 66
   257
 43
1.0
 76
     1
 77
     6
 78
     2
 67
     7
 79
     3
170
     0
171
     0
290
     0
174
     0
 93
        1
 44
0.0
173
     0
291
     0
 45
0.0
1001
ACAD
1000
AcDbSavedByObjectVersion
1070
     0
  0
VISUALSTYLE
  5
A867
102
{ACAD_XDICTIONARY
360
AB9F
102
}
102
{ACAD_REACTORS
330
45B3
102
}
330
45B3
100
AcDbVisualStyle
  2

 70
    25
 71
     2
 72
     2
 73
     1
 90
        1
 40
0.5
 41
-30.0
 62
     5
 63
     7
 74
     1
 91
        0
 64
     7
 65
   257
 75
     1
175
     1
 42
1.0
 92
        8
 66
     7
 43
1.0
 76
     1
 77
     6
 78
     2
 67
     7
 79
     3
170
     0
171
     0
290
     0
174
     0
 93
       13
 44
0.0
173
     0
291
     0
 45
0.0
1001
ACAD
1000
AcDbSavedByObjectVersion
1070
     0
  0
DICTIONARYVAR
  5
7C41
102
{ACAD_REACTORS
330
7C3D
102
}
330
7C3D
100
DictionaryVariables
280
     0
  1
1:1
  0
DICTIONARYVAR
  5
7C3F
102
{ACAD_REACTORS
330
7C3D
102
}
330
7C3D
100
DictionaryVariables
280
     0
  1
STANDARD
  0
DICTIONARYVAR
  5
7C3E
102
{ACAD_REACTORS
330
7C3D
102
}
330
7C3D
100
DictionaryVariables
280
     0
  1
STANDARD
  0
DICTIONARYVAR
  5
9381
102
{ACAD_REACTORS
330
7C3D
102
}
330
7C3D
100
DictionaryVariables
280
     0
  1
1
  0
DICTIONARYVAR
  5
9380
102
{ACAD_REACTORS
330
7C3D
102
}
330
7C3D
100
DictionaryVariables
280
     0
  1
0
  0
DICTIONARYVAR
  5
7C43
102
{ACAD_REACTORS
330
7C3D
102
}
330
7C3D
100
DictionaryVariables
280
     0
  1
1
  0
DICTIONARYVAR
  5
7C44
102
{ACAD_REACTORS
330
7C3D
102
}
330
7C3D
100
DictionaryVariables
280
     0
  1
15
  0
DICTIONARYVAR
  5
7C42
102
{ACAD_REACTORS
330
7C3D
102
}
330
7C3D
100
DictionaryVariables
280
     0
  1
0
  0
DICTIONARYVAR
  5
7C40
102
{ACAD_REACTORS
330
7C3D
102
}
330
7C3D
100
DictionaryVariables
280
     0
  1
0
  0
DICTIONARYVAR
  5
937F
102
{ACAD_REACTORS
330
7C3D
102
}
330
7C3D
100
DictionaryVariables
280
     0
  1
127
  0
DICTIONARYVAR
  5
AB6E
102
{ACAD_REACTORS
330
7C3D
102
}
330
7C3D
100
DictionaryVariables
280
     0
  1
2
  0
DICTIONARY
  5
AB74
330
21
100
AcDbDictionary
280
     1
281
     1
  3
ACAD_XREC_ROUNDTRIP
360
AB75
  0
DICTIONARY
  5
AB72
330
20
100
AcDbDictionary
280
     1
281
     1
  3
ACAD_XREC_ROUNDTRIP
360
AB73
  0
DICTIONARY
  5
45A4
330
45A3
100
AcDbDictionary
280
     1
281
     1
  3
ACAD_XREC_ROUNDTRIP
360
8762
  3
BUMPTILE
360
45A6
  3
DIFFUSETILE
360
45A5
  3
OPACITYTILE
360
45A9
  3
REFLECTIONTILE
360
45A8
  3
REFRACTIONTILE
360
45AA
  3
SPECULARTILE
360
45A7
  0
DICTIONARY
  5
459C
330
459B
100
AcDbDictionary
280
     1
281
     1
  3
ACAD_XREC_ROUNDTRIP
360
8761
  3
BUMPTILE
360
459E
  3
DIFFUSETILE
360
459D
  3
OPACITYTILE
360
45A1
  3
REFLECTIONTILE
360
45A0
  3
REFRACTIONTILE
360
45A2
  3
SPECULARTILE
360
459F
  0
DICTIONARY
  5
45AC
330
45AB
100
AcDbDictionary
280
     1
281
     1
  3
ACAD_XREC_ROUNDTRIP
360
8763
  3
BUMPTILE
360
45AE
  3
DIFFUSETILE
360
45AD
  3
OPACITYTILE
360
45B1
  3
REFLECTIONTILE
360
45B0
  3
REFRACTIONTILE
360
45B2
  3
SPECULARTILE
360
45AF
  0
DICTIONARY
  5
7C3A
330
45C6
100
AcDbDictionary
280
     1
281
     1
  3
ACAD_ROUNDTRIP_2008_TABLESTYLE_CELLSTYLEMAP
360
AB6F
  3
ACAD_XREC_ROUNDTRIP
360
AB96
  0
DICTIONARY
  5
AB80
330
45B9
100
AcDbDictionary
280
     1
281
     1
  3
ACAD_XREC_ROUNDTRIP
360
AB81
  0
DICTIONARY
  5
AB84
330
45BB
100
AcDbDictionary
280
     1
281
     1
  3
ACAD_XREC_ROUNDTRIP
360
AB85
  0
DICTIONARY
  5
AB82
330
45BA
100
AcDbDictionary
280
     1
281
     1
  3
ACAD_XREC_ROUNDTRIP
360
AB83
  0
DICTIONARY
  5
AB7E
330
45B8
100
AcDbDictionary
280
     1
281
     1
  3
ACAD_XREC_ROUNDTRIP
360
AB7F
  0
DICTIONARY
  5
AB8C
330
45BF
100
AcDbDictionary
280
     1
281
     1
  3
ACAD_XREC_ROUNDTRIP
360
AB8D
  0
DICTIONARY
  5
AB94
330
45C3
100
AcDbDictionary
280
     1
281
     1
  3
ACAD_XREC_ROUNDTRIP
360
AB95
  0
DICTIONARY
  5
AB86
330
45BC
100
AcDbDictionary
280
     1
281
     1
  3
ACAD_XREC_ROUNDTRIP
360
AB87
  0
DICTIONARY
  5
AB8A
330
45BE
100
AcDbDictionary
280
     1
281
     1
  3
ACAD_XREC_ROUNDTRIP
360
AB8B
  0
DICTIONARY
  5
ABA9
330
A86C
100
AcDbDictionary
280
     1
281
     1
  3
ACAD_XREC_ROUNDTRIP
360
ABAA
  0
DICTIONARY
  5
AB92
330
45C2
100
AcDbDictionary
280
     1
281
     1
  3
ACAD_XREC_ROUNDTRIP
360
AB93
  0
DICTIONARY
  5
AB76
330
45B4
100
AcDbDictionary
280
     1
281
     1
  3
ACAD_XREC_ROUNDTRIP
360
AB77
  0
DICTIONARY
  5
AB78
330
45B5
100
AcDbDictionary
280
     1
281
     1
  3
ACAD_XREC_ROUNDTRIP
360
AB79
  0
DICTIONARY
  5
AB7A
330
45B6
100
AcDbDictionary
280
     1
281
     1
  3
ACAD_XREC_ROUNDTRIP
360
AB7B
  0
DICTIONARY
  5
AB7C
330
45B7
100
AcDbDictionary
280
     1
281
     1
  3
ACAD_XREC_ROUNDTRIP
360
AB7D
  0
DICTIONARY
  5
AB99
330
A864
100
AcDbDictionary
280
     1
281
     1
  3
ACAD_XREC_ROUNDTRIP
360
AB9A
  0
DICTIONARY
  5
ABA5
330
A86A
100
AcDbDictionary
280
     1
281
     1
  3
ACAD_XREC_ROUNDTRIP
360
ABA6
  0
DICTIONARY
  5
AB90
330
45C1
100
AcDbDictionary
280
     1
281
     1
  3
ACAD_XREC_ROUNDTRIP
360
AB91
  0
DICTIONARY
  5
ABA7
330
A86B
100
AcDbDictionary
280
     1
281
     1
  3
ACAD_XREC_ROUNDTRIP
360
ABA8
  0
DICTIONARY
  5
AB88
330
45BD
100
AcDbDictionary
280
     1
281
     1
  3
ACAD_XREC_ROUNDTRIP
360
AB89
  0
DICTIONARY
  5
ABA3
330
A869
100
AcDbDictionary
280
     1
281
     1
  3
ACAD_XREC_ROUNDTRIP
360
ABA4
  0
DICTIONARY
  5
ABA1
330
A868
100
AcDbDictionary
280
     1
281
     1
  3
ACAD_XREC_ROUNDTRIP
360
ABA2
  0
DICTIONARY
  5
AB9B
330
A865
100
AcDbDictionary
280
     1
281
     1
  3
ACAD_XREC_ROUNDTRIP
360
AB9C
  0
DICTIONARY
  5
AB9D
330
A866
100
AcDbDictionary
280
     1
281
     1
  3
ACAD_XREC_ROUNDTRIP
360
AB9E
  0
DICTIONARY
  5
AB8E
330
45C0
100
AcDbDictionary
280
     1
281
     1
  3
ACAD_XREC_ROUNDTRIP
360
AB8F
  0
DICTIONARY
  5
AB97
330
A863
100
AcDbDictionary
280
     1
281
     1
  3
ACAD_XREC_ROUNDTRIP
360
AB98
  0
DICTIONARY
  5
AB9F
330
A867
100
AcDbDictionary
280
     1
281
     1
  3
ACAD_XREC_ROUNDTRIP
360
ABA0
  0
XRECORD
  5
AB75
102
{ACAD_REACTORS
330
AB74
102
}
330
AB74
100
AcDbXrecord
280
     1
102
SHADEPLOT
 70
     0
102
SHADEPLOTRESLEVEL
 70
     2
102
SHADEPLOTCUSTOMDPI
 70
   300
  0
XRECORD
  5
AB73
102
{ACAD_REACTORS
330
AB72
102
}
330
AB72
100
AcDbXrecord
280
     1
102
SHADEPLOT
 70
     0
102
SHADEPLOTRESLEVEL
 70
     2
102
SHADEPLOTCUSTOMDPI
 70
   300
  0
XRECORD
  5
8762
102
{ACAD_REACTORS
330
45A4
102
}
330
45A4
100
AcDbXrecord
280
     1
102
MATERIAL
148
0.0
149
0.0
149
0.0
 93
        0
 94
      127
282
     0
 72
     0
 77
     0
171
     0
175
     0
179
     0
273
     0
  0
XRECORD
  5
45A6
102
{ACAD_REACTORS
330
45A4
102
}
330
45A4
100
AcDbXrecord
280
     1
270
     1
271
     1
  0
XRECORD
  5
45A5
102
{ACAD_REACTORS
330
45A4
102
}
330
45A4
100
AcDbXrecord
280
     1
270
     1
271
     1
  0
XRECORD
  5
45A9
102
{ACAD_REACTORS
330
45A4
102
}
330
45A4
100
AcDbXrecord
280
     1
270
     1
271
     1
  0
XRECORD
  5
45A8
102
{ACAD_REACTORS
330
45A4
102
}
330
45A4
100
AcDbXrecord
280
     1
270
     1
271
     1
  0
XRECORD
  5
45AA
102
{ACAD_REACTORS
330
45A4
102
}
330
45A4
100
AcDbXrecord
280
     1
270
     1
271
     1
  0
XRECORD
  5
45A7
102
{ACAD_REACTORS
330
45A4
102
}
330
45A4
100
AcDbXrecord
280
     1
270
     1
271
     1
  0
XRECORD
  5
8761
102
{ACAD_REACTORS
330
459C
102
}
330
459C
100
AcDbXrecord
280
     1
102
MATERIAL
148
0.0
149
0.0
149
0.0
 93
        0
 94
      127
282
     0
 72
     0
 77
     0
171
     0
175
     0
179
     0
273
     0
  0
XRECORD
  5
459E
102
{ACAD_REACTORS
330
459C
102
}
330
459C
100
AcDbXrecord
280
     1
270
     1
271
     1
  0
XRECORD
  5
459D
102
{ACAD_REACTORS
330
459C
102
}
330
459C
100
AcDbXrecord
280
     1
270
     1
271
     1
  0
XRECORD
  5
45A1
102
{ACAD_REACTORS
330
459C
102
}
330
459C
100
AcDbXrecord
280
     1
270
     1
271
     1
  0
XRECORD
  5
45A0
102
{ACAD_REACTORS
330
459C
102
}
330
459C
100
AcDbXrecord
280
     1
270
     1
271
     1
  0
XRECORD
  5
45A2
102
{ACAD_REACTORS
330
459C
102
}
330
459C
100
AcDbXrecord
280
     1
270
     1
271
     1
  0
XRECORD
  5
459F
102
{ACAD_REACTORS
330
459C
102
}
330
459C
100
AcDbXrecord
280
     1
270
     1
271
     1
  0
XRECORD
  5
8763
102
{ACAD_REACTORS
330
45AC
102
}
330
45AC
100
AcDbXrecord
280
     1
102
MATERIAL
148
0.0
149
0.0
149
0.0
 93
        0
 94
      127
282
     0
 72
     0
 77
     0
171
     0
175
     0
179
     0
273
     0
  0
XRECORD
  5
45AE
102
{ACAD_REACTORS
330
45AC
102
}
330
45AC
100
AcDbXrecord
280
     1
270
     1
271
     1
  0
XRECORD
  5
45AD
102
{ACAD_REACTORS
330
45AC
102
}
330
45AC
100
AcDbXrecord
280
     1
270
     1
271
     1
  0
XRECORD
  5
45B1
102
{ACAD_REACTORS
330
45AC
102
}
330
45AC
100
AcDbXrecord
280
     1
270
     1
271
     1
  0
XRECORD
  5
45B0
102
{ACAD_REACTORS
330
45AC
102
}
330
45AC
100
AcDbXrecord
280
     1
270
     1
271
     1
  0
XRECORD
  5
45B2
102
{ACAD_REACTORS
330
45AC
102
}
330
45AC
100
AcDbXrecord
280
     1
270
     1
271
     1
  0
XRECORD
  5
45AF
102
{ACAD_REACTORS
330
45AC
102
}
330
45AC
100
AcDbXrecord
280
     1
270
     1
271
     1
  0
CELLSTYLEMAP
  5
AB6F
102
{ACAD_REACTORS
330
7C3A
102
}
330
7C3A
100
AcDbCellStyleMap
 90
        3
300
CELLSTYLE
  1
TABLEFORMAT_BEGIN
 90
        5
170
     1
 91
        0
 92
    32768
 62
   257
 93
        1
300
CONTENTFORMAT
  1
CONTENTFORMAT_BEGIN
 90
        0
 91
        0
 92
      512
 93
        0
300

 40
0.0
140
1.0
 94
        5
 62
     0
340
17
144
6.0
309
CONTENTFORMAT_END
171
     1
301
MARGIN
  1
CELLMARGIN_BEGIN
 40
1.5
 40
1.5
 40
1.5
 40
1.5
 40
0.18
 40
0.18
309
CELLMARGIN_END
 94
        6
 95
        1
302
GRIDFORMAT
  1
GRIDFORMAT_BEGIN
 90
        0
 91
        1
 62
     0
 92
       -2
340
0
 93
        0
 40
1.125
309
GRIDFORMAT_END
 95
        2
302
GRIDFORMAT
  1
GRIDFORMAT_BEGIN
 90
        0
 91
        1
 62
     0
 92
       -2
340
0
 93
        0
 40
1.125
309
GRIDFORMAT_END
 95
        4
302
GRIDFORMAT
  1
GRIDFORMAT_BEGIN
 90
        0
 91
        1
 62
     0
 92
       -2
340
0
 93
        0
 40
1.125
309
GRIDFORMAT_END
 95
        8
302
GRIDFORMAT
  1
GRIDFORMAT_BEGIN
 90
        0
 91
        1
 62
     0
 92
       -2
340
0
 93
        0
 40
1.125
309
GRIDFORMAT_END
 95
       16
302
GRIDFORMAT
  1
GRIDFORMAT_BEGIN
 90
        0
 91
        1
 62
     0
 92
       -2
340
0
 93
        0
 40
1.125
309
GRIDFORMAT_END
 95
       32
302
GRIDFORMAT
  1
GRIDFORMAT_BEGIN
 90
        0
 91
        1
 62
     0
 92
       -2
340
0
 93
        0
 40
1.125
309
GRIDFORMAT_END
309
TABLEFORMAT_END
  1
CELLSTYLE_BEGIN
 90
        1
 91
        1
300
_TITLE
309
CELLSTYLE_END
300
CELLSTYLE
  1
TABLEFORMAT_BEGIN
 90
        5
170
     1
 91
        0
 92
        0
 62
   257
 93
        1
300
CONTENTFORMAT
  1
CONTENTFORMAT_BEGIN
 90
        0
 91
        0
 92
      512
 93
        0
300

 40
0.0
140
1.0
 94
        5
 62
     0
340
17
144
4.5
309
CONTENTFORMAT_END
171
     1
301
MARGIN
  1
CELLMARGIN_BEGIN
 40
1.5
 40
1.5
 40
1.5
 40
1.5
 40
0.18
 40
0.18
309
CELLMARGIN_END
 94
        6
 95
        1
302
GRIDFORMAT
  1
GRIDFORMAT_BEGIN
 90
        0
 91
        1
 62
     0
 92
       -2
340
0
 93
        0
 40
1.125
309
GRIDFORMAT_END
 95
        2
302
GRIDFORMAT
  1
GRIDFORMAT_BEGIN
 90
        0
 91
        1
 62
     0
 92
       -2
340
0
 93
        0
 40
1.125
309
GRIDFORMAT_END
 95
        4
302
GRIDFORMAT
  1
GRIDFORMAT_BEGIN
 90
        0
 91
        1
 62
     0
 92
       -2
340
0
 93
        0
 40
1.125
309
GRIDFORMAT_END
 95
        8
302
GRIDFORMAT
  1
GRIDFORMAT_BEGIN
 90
        0
 91
        1
 62
     0
 92
       -2
340
0
 93
        0
 40
1.125
309
GRIDFORMAT_END
 95
       16
302
GRIDFORMAT
  1
GRIDFORMAT_BEGIN
 90
        0
 91
        1
 62
     0
 92
       -2
340
0
 93
        0
 40
1.125
309
GRIDFORMAT_END
 95
       32
302
GRIDFORMAT
  1
GRIDFORMAT_BEGIN
 90
        0
 91
        1
 62
     0
 92
       -2
340
0
 93
        0
 40
1.125
309
GRIDFORMAT_END
309
TABLEFORMAT_END
  1
CELLSTYLE_BEGIN
 90
        2
 91
        1
300
_HEADER
309
CELLSTYLE_END
300
CELLSTYLE
  1
TABLEFORMAT_BEGIN
 90
        5
170
     1
 91
        0
 92
        0
 62
   257
 93
        1
300
CONTENTFORMAT
  1
CONTENTFORMAT_BEGIN
 90
        0
 91
        0
 92
      512
 93
        0
300

 40
0.0
140
1.0
 94
        2
 62
     0
340
17
144
4.5
309
CONTENTFORMAT_END
171
     1
301
MARGIN
  1
CELLMARGIN_BEGIN
 40
1.5
 40
1.5
 40
1.5
 40
1.5
 40
0.18
 40
0.18
309
CELLMARGIN_END
 94
        6
 95
        1
302
GRIDFORMAT
  1
GRIDFORMAT_BEGIN
 90
        0
 91
        1
 62
     0
 92
       -2
340
0
 93
        0
 40
1.125
309
GRIDFORMAT_END
 95
        2
302
GRIDFORMAT
  1
GRIDFORMAT_BEGIN
 90
        0
 91
        1
 62
     0
 92
       -2
340
0
 93
        0
 40
1.125
309
GRIDFORMAT_END
 95
        4
302
GRIDFORMAT
  1
GRIDFORMAT_BEGIN
 90
        0
 91
        1
 62
     0
 92
       -2
340
0
 93
        0
 40
1.125
309
GRIDFORMAT_END
 95
        8
302
GRIDFORMAT
  1
GRIDFORMAT_BEGIN
 90
        0
 91
        1
 62
     0
 92
       -2
340
0
 93
        0
 40
1.125
309
GRIDFORMAT_END
 95
       16
302
GRIDFORMAT
  1
GRIDFORMAT_BEGIN
 90
        0
 91
        1
 62
     0
 92
       -2
340
0
 93
        0
 40
1.125
309
GRIDFORMAT_END
 95
       32
302
GRIDFORMAT
  1
GRIDFORMAT_BEGIN
 90
        0
 91
        1
 62
     0
 92
       -2
340
0
 93
        0
 40
1.125
309
GRIDFORMAT_END
309
TABLEFORMAT_END
  1
CELLSTYLE_BEGIN
 90
        3
 91
        2
300
_DATA
309
CELLSTYLE_END
  0
XRECORD
  5
AB96
102
{ACAD_REACTORS
330
7C3A
102
}
330
7C3A
100
AcDbXrecord
280
     1
102
ACAD_ROUNDTRIP_PRE2007_TABLESTYLE
 90
      512
 91
        0
  1

 92
      512
 93
        0
  2

 94
      512
 95
        0
  3

  0
XRECORD
  5
AB81
102
{ACAD_REACTORS
330
AB80
102
}
330
AB80
100
AcDbXrecord
280
     1
102
RTVSPropertyOp0
 70
     1
102
RTVSPropertyOp1
 70
     1
102
RTVSPropertyOp2
 70
     1
102
RTVSPropertyOp3
 70
     1
102
RTVSPropertyOp4
 70
     1
102
RTVSPropertyOp5
 70
     1
102
RTVSPropertyOp6
 70
     1
102
RTVSPropertyOp7
 70
     1
102
RTVSPropertyOp8
 70
     1
102
RTVSPropertyOp9
 70
     1
102
RTVSPropertyOp10
 70
     1
102
RTVSPropertyOp11
 70
     1
102
RTVSPropertyOp12
 70
     1
102
RTVSPropertyOp13
 70
     1
102
RTVSPropertyOp14
 70
     1
102
RTVSPropertyOp15
 70
     1
102
RTVSPropertyOp16
 70
     1
102
RTVSPropertyOp17
 70
     1
102
RTVSPropertyOp18
 70
     1
102
RTVSPropertyOp19
 70
     1
102
RTVSPropertyOp20
 70
     1
102
RTVSPropertyOp21
 70
     1
102
RTVSPropertyOp22
 70
     1
102
RTVSPropertyOp23
 70
     1
102
RTVSPropertyOp24
 70
     1
102
RTVSPropertyOp25
 70
     1
102
RTVSPropertyOp26
 70
     1
102
RTVSPropertyOp27
 70
     1
102
RTVSPropertyOp28
 70
     1
102
RTVSPropertyOp29
 70
     1
102
RTVSPropertyOp30
 70
     1
102
RTVSPropertyOp31
 70
     1
102
RTVSPropertyOp32
 70
     1
  0
XRECORD
  5
AB85
102
{ACAD_REACTORS
330
AB84
102
}
330
AB84
100
AcDbXrecord
280
     1
102
RTVSPropertyOp0
 70
     1
102
RTVSPropertyOp1
 70
     1
102
RTVSPropertyOp2
 70
     1
102
RTVSPropertyOp3
 70
     1
102
RTVSPropertyOp4
 70
     1
102
RTVSPropertyOp5
 70
     1
102
RTVSPropertyOp6
 70
     1
102
RTVSPropertyOp7
 70
     1
102
RTVSPropertyOp8
 70
     1
102
RTVSPropertyOp9
 70
     1
102
RTVSPropertyOp10
 70
     1
102
RTVSPropertyOp11
 70
     1
102
RTVSPropertyOp12
 70
     1
102
RTVSPropertyOp13
 70
     1
102
RTVSPropertyOp14
 70
     1
102
RTVSPropertyOp15
 70
     1
102
RTVSPropertyOp16
 70
     1
102
RTVSPropertyOp17
 70
     1
102
RTVSPropertyOp18
 70
     1
102
RTVSPropertyOp19
 70
     1
102
RTVSPropertyOp20
 70
     1
102
RTVSPropertyOp21
 70
     1
102
RTVSPropertyOp22
 70
     1
102
RTVSPropertyOp23
 70
     1
102
RTVSPropertyOp24
 70
     1
102
RTVSPropertyOp25
 70
     1
102
RTVSPropertyOp26
 70
     1
102
RTVSPropertyOp27
 70
     1
102
RTVSPropertyOp28
 70
     1
102
RTVSPropertyOp29
 70
     1
102
RTVSPropertyOp30
 70
     1
102
RTVSPropertyOp31
 70
     1
102
RTVSPropertyOp32
 70
     1
  0
XRECORD
  5
AB83
102
{ACAD_REACTORS
330
AB82
102
}
330
AB82
100
AcDbXrecord
280
     1
102
RTVSPropertyOp0
 70
     1
102
RTVSPropertyOp1
 70
     1
102
RTVSPropertyOp2
 70
     1
102
RTVSPropertyOp3
 70
     1
102
RTVSPropertyOp4
 70
     1
102
RTVSPropertyOp5
 70
     1
102
RTVSPropertyOp6
 70
     1
102
RTVSPropertyOp7
 70
     1
102
RTVSPropertyOp8
 70
     1
102
RTVSPropertyOp9
 70
     1
102
RTVSPropertyOp10
 70
     1
102
RTVSPropertyOp11
 70
     1
102
RTVSPropertyOp12
 70
     1
102
RTVSPropertyOp13
 70
     1
102
RTVSPropertyOp14
 70
     1
102
RTVSPropertyOp15
 70
     1
102
RTVSPropertyOp16
 70
     1
102
RTVSPropertyOp17
 70
     1
102
RTVSPropertyOp18
 70
     1
102
RTVSPropertyOp19
 70
     1
102
RTVSPropertyOp20
 70
     1
102
RTVSPropertyOp21
 70
     1
102
RTVSPropertyOp22
 70
     1
102
RTVSPropertyOp23
 70
     1
102
RTVSPropertyOp24
 70
     1
102
RTVSPropertyOp25
 70
     1
102
RTVSPropertyOp26
 70
     1
102
RTVSPropertyOp27
 70
     1
102
RTVSPropertyOp28
 70
     1
102
RTVSPropertyOp29
 70
     1
102
RTVSPropertyOp30
 70
     1
102
RTVSPropertyOp31
 70
     1
102
RTVSPropertyOp32
 70
     1
  0
XRECORD
  5
AB7F
102
{ACAD_REACTORS
330
AB7E
102
}
330
AB7E
100
AcDbXrecord
280
     1
102
RTVSPropertyOp0
 70
     1
102
RTVSPropertyOp1
 70
     1
102
RTVSPropertyOp2
 70
     1
102
RTVSPropertyOp3
 70
     1
102
RTVSPropertyOp4
 70
     1
102
RTVSPropertyOp5
 70
     1
102
RTVSPropertyOp6
 70
     1
102
RTVSPropertyOp7
 70
     1
102
RTVSPropertyOp8
 70
     1
102
RTVSPropertyOp9
 70
     1
102
RTVSPropertyOp10
 70
     1
102
RTVSPropertyOp11
 70
     1
102
RTVSPropertyOp12
 70
     1
102
RTVSPropertyOp13
 70
     1
102
RTVSPropertyOp14
 70
     1
102
RTVSPropertyOp15
 70
     1
102
RTVSPropertyOp16
 70
     1
102
RTVSPropertyOp17
 70
     1
102
RTVSPropertyOp18
 70
     1
102
RTVSPropertyOp19
 70
     1
102
RTVSPropertyOp20
 70
     1
102
RTVSPropertyOp21
 70
     1
102
RTVSPropertyOp22
 70
     1
102
RTVSPropertyOp23
 70
     1
102
RTVSPropertyOp24
 70
     1
102
RTVSPropertyOp25
 70
     1
102
RTVSPropertyOp26
 70
     1
102
RTVSPropertyOp27
 70
     1
102
RTVSPropertyOp28
 70
     1
102
RTVSPropertyOp29
 70
     1
102
RTVSPropertyOp30
 70
     1
102
RTVSPropertyOp31
 70
     1
102
RTVSPropertyOp32
 70
     1
  0
XRECORD
  5
AB8D
102
{ACAD_REACTORS
330
AB8C
102
}
330
AB8C
100
AcDbXrecord
280
     1
102
RTVSPropertyOp0
 70
     1
102
RTVSPropertyOp1
 70
     1
102
RTVSPropertyOp2
 70
     1
102
RTVSPropertyOp3
 70
     1
102
RTVSPropertyOp4
 70
     1
102
RTVSPropertyOp5
 70
     1
102
RTVSPropertyOp6
 70
     1
102
RTVSPropertyOp7
 70
     1
102
RTVSPropertyOp8
 70
     1
102
RTVSPropertyOp9
 70
     1
102
RTVSPropertyOp10
 70
     1
102
RTVSPropertyOp11
 70
     1
102
RTVSPropertyOp12
 70
     1
102
RTVSPropertyOp13
 70
     1
102
RTVSPropertyOp14
 70
     1
102
RTVSPropertyOp15
 70
     1
102
RTVSPropertyOp16
 70
     1
102
RTVSPropertyOp17
 70
     1
102
RTVSPropertyOp18
 70
     1
102
RTVSPropertyOp19
 70
     1
102
RTVSPropertyOp20
 70
     1
102
RTVSPropertyOp21
 70
     1
102
RTVSPropertyOp22
 70
     1
102
RTVSPropertyOp23
 70
     1
102
RTVSPropertyOp24
 70
     1
102
RTVSPropertyOp25
 70
     1
102
RTVSPropertyOp26
 70
     1
102
RTVSPropertyOp27
 70
     1
102
RTVSPropertyOp28
 70
     1
102
RTVSPropertyOp29
 70
     1
102
RTVSPropertyOp30
 70
     1
102
RTVSPropertyOp31
 70
     1
102
RTVSPropertyOp32
 70
     1
  0
XRECORD
  5
AB95
102
{ACAD_REACTORS
330
AB94
102
}
330
AB94
100
AcDbXrecord
280
     1
102
RTVSPropertyOp0
 70
     1
102
RTVSPropertyOp1
 70
     1
102
RTVSPropertyOp2
 70
     1
102
RTVSPropertyOp3
 70
     1
102
RTVSPropertyOp4
 70
     1
102
RTVSPropertyOp5
 70
     1
102
RTVSPropertyOp6
 70
     1
102
RTVSPropertyOp7
 70
     1
102
RTVSPropertyOp8
 70
     1
102
RTVSPropertyOp9
 70
     1
102
RTVSPropertyOp10
 70
     1
102
RTVSPropertyOp11
 70
     1
102
RTVSPropertyOp12
 70
     1
102
RTVSPropertyOp13
 70
     1
102
RTVSPropertyOp14
 70
     1
102
RTVSPropertyOp15
 70
     1
102
RTVSPropertyOp16
 70
     1
102
RTVSPropertyOp17
 70
     1
102
RTVSPropertyOp18
 70
     1
102
RTVSPropertyOp19
 70
     1
102
RTVSPropertyOp20
 70
     1
102
RTVSPropertyOp21
 70
     1
102
RTVSPropertyOp22
 70
     1
102
RTVSPropertyOp23
 70
     1
102
RTVSPropertyOp24
 70
     1
102
RTVSPropertyOp25
 70
     1
102
RTVSPropertyOp26
 70
     1
102
RTVSPropertyOp27
 70
     1
102
RTVSPropertyOp28
 70
     1
102
RTVSPropertyOp29
 70
     1
102
RTVSPropertyOp30
 70
     1
102
RTVSPropertyOp31
 70
     1
102
RTVSPropertyOp32
 70
     1
  0
XRECORD
  5
AB87
102
{ACAD_REACTORS
330
AB86
102
}
330
AB86
100
AcDbXrecord
280
     1
102
RTVSPropertyOp0
 70
     1
102
RTVSPropertyOp1
 70
     1
102
RTVSPropertyOp2
 70
     1
102
RTVSPropertyOp3
 70
     1
102
RTVSPropertyOp4
 70
     1
102
RTVSPropertyOp5
 70
     1
102
RTVSPropertyOp6
 70
     1
102
RTVSPropertyOp7
 70
     1
102
RTVSPropertyOp8
 70
     1
102
RTVSPropertyOp9
 70
     1
102
RTVSPropertyOp10
 70
     1
102
RTVSPropertyOp11
 70
     1
102
RTVSPropertyOp12
 70
     1
102
RTVSPropertyOp13
 70
     1
102
RTVSPropertyOp14
 70
     1
102
RTVSPropertyOp15
 70
     1
102
RTVSPropertyOp16
 70
     1
102
RTVSPropertyOp17
 70
     1
102
RTVSPropertyOp18
 70
     1
102
RTVSPropertyOp19
 70
     1
102
RTVSPropertyOp20
 70
     1
102
RTVSPropertyOp21
 70
     1
102
RTVSPropertyOp22
 70
     1
102
RTVSPropertyOp23
 70
     1
102
RTVSPropertyOp24
 70
     1
102
RTVSPropertyOp25
 70
     1
102
RTVSPropertyOp26
 70
     1
102
RTVSPropertyOp27
 70
     1
102
RTVSPropertyOp28
 70
     1
102
RTVSPropertyOp29
 70
     1
102
RTVSPropertyOp30
 70
     1
102
RTVSPropertyOp31
 70
     1
102
RTVSPropertyOp32
 70
     1
  0
XRECORD
  5
AB8B
102
{ACAD_REACTORS
330
AB8A
102
}
330
AB8A
100
AcDbXrecord
280
     1
102
RTVSPropertyOp0
 70
     1
102
RTVSPropertyOp1
 70
     1
102
RTVSPropertyOp2
 70
     1
102
RTVSPropertyOp3
 70
     1
102
RTVSPropertyOp4
 70
     1
102
RTVSPropertyOp5
 70
     1
102
RTVSPropertyOp6
 70
     1
102
RTVSPropertyOp7
 70
     1
102
RTVSPropertyOp8
 70
     1
102
RTVSPropertyOp9
 70
     1
102
RTVSPropertyOp10
 70
     1
102
RTVSPropertyOp11
 70
     1
102
RTVSPropertyOp12
 70
     1
102
RTVSPropertyOp13
 70
     1
102
RTVSPropertyOp14
 70
     1
102
RTVSPropertyOp15
 70
     1
102
RTVSPropertyOp16
 70
     1
102
RTVSPropertyOp17
 70
     1
102
RTVSPropertyOp18
 70
     1
102
RTVSPropertyOp19
 70
     1
102
RTVSPropertyOp20
 70
     1
102
RTVSPropertyOp21
 70
     1
102
RTVSPropertyOp22
 70
     1
102
RTVSPropertyOp23
 70
     1
102
RTVSPropertyOp24
 70
     1
102
RTVSPropertyOp25
 70
     1
102
RTVSPropertyOp26
 70
     1
102
RTVSPropertyOp27
 70
     1
102
RTVSPropertyOp28
 70
     1
102
RTVSPropertyOp29
 70
     1
102
RTVSPropertyOp30
 70
     1
102
RTVSPropertyOp31
 70
     1
102
RTVSPropertyOp32
 70
     1
  0
XRECORD
  5
ABAA
102
{ACAD_REACTORS
330
ABA9
102
}
330
ABA9
100
AcDbXrecord
280
     1
102
RTVSPropertyOp0
 70
     0
102
RTVSPropertyOp1
 70
     0
102
RTVSPropertyOp2
 70
     0
102
RTVSPropertyOp3
 70
     0
102
RTVSPropertyOp4
 70
     0
102
RTVSPropertyOp5
 70
     0
102
RTVSPropertyOp6
 70
     0
102
RTVSPropertyOp7
 70
     0
102
RTVSPropertyOp8
 70
     0
102
RTVSPropertyOp9
 70
     0
102
RTVSPropertyOp10
 70
     0
102
RTVSPropertyOp11
 70
     0
102
RTVSPropertyOp12
 70
     0
102
RTVSPropertyOp13
 70
     0
102
RTVSPropertyOp14
 70
     2
102
RTVSPropertyOp15
 70
     0
102
RTVSPropertyOp16
 70
     0
102
RTVSPropertyOp17
 70
     0
102
RTVSPropertyOp18
 70
     0
102
RTVSPropertyOp19
 70
     0
102
RTVSPropertyOp20
 70
     0
102
RTVSPropertyOp21
 70
     0
102
RTVSPropertyOp22
 70
     0
102
RTVSPropertyOp23
 70
     0
102
RTVSPropertyOp24
 70
     0
102
RTVSPropertyOp25
 70
     0
102
RTVSPropertyOp26
 70
     0
102
RTVSPropertyOp27
 70
     0
102
RTVSPropertyOp28
 70
     0
102
RTVSPropertyOp29
 70
     0
102
RTVSPropertyOp30
 70
     0
102
RTVSPropertyOp31
 70
     0
102
RTVSPropertyOp32
 70
     0
  0
XRECORD
  5
AB93
102
{ACAD_REACTORS
330
AB92
102
}
330
AB92
100
AcDbXrecord
280
     1
102
RTVSPropertyOp0
 70
     1
102
RTVSPropertyOp1
 70
     1
102
RTVSPropertyOp2
 70
     1
102
RTVSPropertyOp3
 70
     1
102
RTVSPropertyOp4
 70
     1
102
RTVSPropertyOp5
 70
     1
102
RTVSPropertyOp6
 70
     1
102
RTVSPropertyOp7
 70
     1
102
RTVSPropertyOp8
 70
     1
102
RTVSPropertyOp9
 70
     1
102
RTVSPropertyOp10
 70
     1
102
RTVSPropertyOp11
 70
     1
102
RTVSPropertyOp12
 70
     1
102
RTVSPropertyOp13
 70
     1
102
RTVSPropertyOp14
 70
     1
102
RTVSPropertyOp15
 70
     1
102
RTVSPropertyOp16
 70
     1
102
RTVSPropertyOp17
 70
     1
102
RTVSPropertyOp18
 70
     1
102
RTVSPropertyOp19
 70
     1
102
RTVSPropertyOp20
 70
     1
102
RTVSPropertyOp21
 70
     1
102
RTVSPropertyOp22
 70
     1
102
RTVSPropertyOp23
 70
     1
102
RTVSPropertyOp24
 70
     1
102
RTVSPropertyOp25
 70
     1
102
RTVSPropertyOp26
 70
     1
102
RTVSPropertyOp27
 70
     1
102
RTVSPropertyOp28
 70
     1
102
RTVSPropertyOp29
 70
     1
102
RTVSPropertyOp30
 70
     1
102
RTVSPropertyOp31
 70
     1
102
RTVSPropertyOp32
 70
     1
  0
XRECORD
  5
AB77
102
{ACAD_REACTORS
330
AB76
102
}
330
AB76
100
AcDbXrecord
280
     1
102
RTVSPropertyOp0
 70
     1
102
RTVSPropertyOp1
 70
     1
102
RTVSPropertyOp2
 70
     1
102
RTVSPropertyOp3
 70
     1
102
RTVSPropertyOp4
 70
     1
102
RTVSPropertyOp5
 70
     1
102
RTVSPropertyOp6
 70
     1
102
RTVSPropertyOp7
 70
     1
102
RTVSPropertyOp8
 70
     1
102
RTVSPropertyOp9
 70
     1
102
RTVSPropertyOp10
 70
     1
102
RTVSPropertyOp11
 70
     1
102
RTVSPropertyOp12
 70
     1
102
RTVSPropertyOp13
 70
     1
102
RTVSPropertyOp14
 70
     1
102
RTVSPropertyOp15
 70
     1
102
RTVSPropertyOp16
 70
     1
102
RTVSPropertyOp17
 70
     1
102
RTVSPropertyOp18
 70
     1
102
RTVSPropertyOp19
 70
     1
102
RTVSPropertyOp20
 70
     1
102
RTVSPropertyOp21
 70
     1
102
RTVSPropertyOp22
 70
     1
102
RTVSPropertyOp23
 70
     1
102
RTVSPropertyOp24
 70
     1
102
RTVSPropertyOp25
 70
     1
102
RTVSPropertyOp26
 70
     1
102
RTVSPropertyOp27
 70
     1
102
RTVSPropertyOp28
 70
     1
102
RTVSPropertyOp29
 70
     1
102
RTVSPropertyOp30
 70
     1
102
RTVSPropertyOp31
 70
     1
102
RTVSPropertyOp32
 70
     1
  0
XRECORD
  5
AB79
102
{ACAD_REACTORS
330
AB78
102
}
330
AB78
100
AcDbXrecord
280
     1
102
RTVSPropertyOp0
 70
     1
102
RTVSPropertyOp1
 70
     1
102
RTVSPropertyOp2
 70
     1
102
RTVSPropertyOp3
 70
     1
102
RTVSPropertyOp4
 70
     1
102
RTVSPropertyOp5
 70
     1
102
RTVSPropertyOp6
 70
     1
102
RTVSPropertyOp7
 70
     1
102
RTVSPropertyOp8
 70
     1
102
RTVSPropertyOp9
 70
     1
102
RTVSPropertyOp10
 70
     1
102
RTVSPropertyOp11
 70
     1
102
RTVSPropertyOp12
 70
     1
102
RTVSPropertyOp13
 70
     1
102
RTVSPropertyOp14
 70
     1
102
RTVSPropertyOp15
 70
     1
102
RTVSPropertyOp16
 70
     1
102
RTVSPropertyOp17
 70
     1
102
RTVSPropertyOp18
 70
     1
102
RTVSPropertyOp19
 70
     1
102
RTVSPropertyOp20
 70
     1
102
RTVSPropertyOp21
 70
     1
102
RTVSPropertyOp22
 70
     1
102
RTVSPropertyOp23
 70
     1
102
RTVSPropertyOp24
 70
     1
102
RTVSPropertyOp25
 70
     1
102
RTVSPropertyOp26
 70
     1
102
RTVSPropertyOp27
 70
     1
102
RTVSPropertyOp28
 70
     1
102
RTVSPropertyOp29
 70
     1
102
RTVSPropertyOp30
 70
     1
102
RTVSPropertyOp31
 70
     1
102
RTVSPropertyOp32
 70
     1
  0
XRECORD
  5
AB7B
102
{ACAD_REACTORS
330
AB7A
102
}
330
AB7A
100
AcDbXrecord
280
     1
102
RTVSPropertyOp0
 70
     1
102
RTVSPropertyOp1
 70
     1
102
RTVSPropertyOp2
 70
     1
102
RTVSPropertyOp3
 70
     1
102
RTVSPropertyOp4
 70
     1
102
RTVSPropertyOp5
 70
     1
102
RTVSPropertyOp6
 70
     1
102
RTVSPropertyOp7
 70
     1
102
RTVSPropertyOp8
 70
     1
102
RTVSPropertyOp9
 70
     1
102
RTVSPropertyOp10
 70
     1
102
RTVSPropertyOp11
 70
     1
102
RTVSPropertyOp12
 70
     1
102
RTVSPropertyOp13
 70
     1
102
RTVSPropertyOp14
 70
     1
102
RTVSPropertyOp15
 70
     1
102
RTVSPropertyOp16
 70
     1
102
RTVSPropertyOp17
 70
     1
102
RTVSPropertyOp18
 70
     1
102
RTVSPropertyOp19
 70
     1
102
RTVSPropertyOp20
 70
     1
102
RTVSPropertyOp21
 70
     1
102
RTVSPropertyOp22
 70
     1
102
RTVSPropertyOp23
 70
     1
102
RTVSPropertyOp24
 70
     1
102
RTVSPropertyOp25
 70
     1
102
RTVSPropertyOp26
 70
     1
102
RTVSPropertyOp27
 70
     1
102
RTVSPropertyOp28
 70
     1
102
RTVSPropertyOp29
 70
     1
102
RTVSPropertyOp30
 70
     1
102
RTVSPropertyOp31
 70
     1
102
RTVSPropertyOp32
 70
     1
  0
XRECORD
  5
AB7D
102
{ACAD_REACTORS
330
AB7C
102
}
330
AB7C
100
AcDbXrecord
280
     1
102
RTVSPropertyOp0
 70
     1
102
RTVSPropertyOp1
 70
     1
102
RTVSPropertyOp2
 70
     1
102
RTVSPropertyOp3
 70
     1
102
RTVSPropertyOp4
 70
     1
102
RTVSPropertyOp5
 70
     1
102
RTVSPropertyOp6
 70
     1
102
RTVSPropertyOp7
 70
     1
102
RTVSPropertyOp8
 70
     1
102
RTVSPropertyOp9
 70
     1
102
RTVSPropertyOp10
 70
     1
102
RTVSPropertyOp11
 70
     1
102
RTVSPropertyOp12
 70
     1
102
RTVSPropertyOp13
 70
     1
102
RTVSPropertyOp14
 70
     1
102
RTVSPropertyOp15
 70
     1
102
RTVSPropertyOp16
 70
     1
102
RTVSPropertyOp17
 70
     1
102
RTVSPropertyOp18
 70
     1
102
RTVSPropertyOp19
 70
     1
102
RTVSPropertyOp20
 70
     1
102
RTVSPropertyOp21
 70
     1
102
RTVSPropertyOp22
 70
     1
102
RTVSPropertyOp23
 70
     1
102
RTVSPropertyOp24
 70
     1
102
RTVSPropertyOp25
 70
     1
102
RTVSPropertyOp26
 70
     1
102
RTVSPropertyOp27
 70
     1
102
RTVSPropertyOp28
 70
     1
102
RTVSPropertyOp29
 70
     1
102
RTVSPropertyOp30
 70
     1
102
RTVSPropertyOp31
 70
     1
102
RTVSPropertyOp32
 70
     1
  0
XRECORD
  5
AB9A
102
{ACAD_REACTORS
330
AB99
102
}
330
AB99
100
AcDbXrecord
280
     1
102
RTVSPropertyOp0
 70
     1
102
RTVSPropertyOp1
 70
     1
102
RTVSPropertyOp2
 70
     1
102
RTVSPropertyOp3
 70
     1
102
RTVSPropertyOp4
 70
     1
102
RTVSPropertyOp5
 70
     1
102
RTVSPropertyOp6
 70
     1
102
RTVSPropertyOp7
 70
     1
102
RTVSPropertyOp8
 70
     1
102
RTVSPropertyOp9
 70
     1
102
RTVSPropertyOp10
 70
     1
102
RTVSPropertyOp11
 70
     1
102
RTVSPropertyOp12
 70
     1
102
RTVSPropertyOp13
 70
     1
102
RTVSPropertyOp14
 70
     1
102
RTVSPropertyOp15
 70
     1
102
RTVSPropertyOp16
 70
     1
102
RTVSPropertyOp17
 70
     1
102
RTVSPropertyOp18
 70
     1
102
RTVSPropertyOp19
 70
     1
102
RTVSPropertyOp20
 70
     1
102
RTVSPropertyOp21
 70
     1
102
RTVSPropertyOp22
 70
     1
102
RTVSPropertyOp23
 70
     1
102
RTVSPropertyOp24
 70
     1
102
RTVSPropertyOp25
 70
     1
102
RTVSPropertyOp26
 70
     1
102
RTVSPropertyOp27
 70
     1
102
RTVSPropertyOp28
 70
     1
102
RTVSPropertyOp29
 70
     1
102
RTVSPropertyOp30
 70
     1
102
RTVSPropertyOp31
 70
     1
102
RTVSPropertyOp32
 70
     1
  0
XRECORD
  5
ABA6
102
{ACAD_REACTORS
330
ABA5
102
}
330
ABA5
100
AcDbXrecord
280
     1
102
RTVSPropertyOp0
 70
     0
102
RTVSPropertyOp1
 70
     0
102
RTVSPropertyOp2
 70
     0
102
RTVSPropertyOp3
 70
     0
102
RTVSPropertyOp4
 70
     0
102
RTVSPropertyOp5
 70
     0
102
RTVSPropertyOp6
 70
     0
102
RTVSPropertyOp7
 70
     0
102
RTVSPropertyOp8
 70
     0
102
RTVSPropertyOp9
 70
     0
102
RTVSPropertyOp10
 70
     0
102
RTVSPropertyOp11
 70
     0
102
RTVSPropertyOp12
 70
     0
102
RTVSPropertyOp13
 70
     0
102
RTVSPropertyOp14
 70
     2
102
RTVSPropertyOp15
 70
     0
102
RTVSPropertyOp16
 70
     0
102
RTVSPropertyOp17
 70
     0
102
RTVSPropertyOp18
 70
     0
102
RTVSPropertyOp19
 70
     0
102
RTVSPropertyOp20
 70
     0
102
RTVSPropertyOp21
 70
     0
102
RTVSPropertyOp22
 70
     0
102
RTVSPropertyOp23
 70
     0
102
RTVSPropertyOp24
 70
     0
102
RTVSPropertyOp25
 70
     0
102
RTVSPropertyOp26
 70
     0
102
RTVSPropertyOp27
 70
     0
102
RTVSPropertyOp28
 70
     0
102
RTVSPropertyOp29
 70
     0
102
RTVSPropertyOp30
 70
     0
102
RTVSPropertyOp31
 70
     0
102
RTVSPropertyOp32
 70
     0
  0
XRECORD
  5
AB91
102
{ACAD_REACTORS
330
AB90
102
}
330
AB90
100
AcDbXrecord
280
     1
102
RTVSPropertyOp0
 70
     1
102
RTVSPropertyOp1
 70
     1
102
RTVSPropertyOp2
 70
     1
102
RTVSPropertyOp3
 70
     1
102
RTVSPropertyOp4
 70
     1
102
RTVSPropertyOp5
 70
     1
102
RTVSPropertyOp6
 70
     1
102
RTVSPropertyOp7
 70
     1
102
RTVSPropertyOp8
 70
     1
102
RTVSPropertyOp9
 70
     1
102
RTVSPropertyOp10
 70
     1
102
RTVSPropertyOp11
 70
     1
102
RTVSPropertyOp12
 70
     1
102
RTVSPropertyOp13
 70
     1
102
RTVSPropertyOp14
 70
     1
102
RTVSPropertyOp15
 70
     1
102
RTVSPropertyOp16
 70
     1
102
RTVSPropertyOp17
 70
     1
102
RTVSPropertyOp18
 70
     1
102
RTVSPropertyOp19
 70
     1
102
RTVSPropertyOp20
 70
     1
102
RTVSPropertyOp21
 70
     1
102
RTVSPropertyOp22
 70
     1
102
RTVSPropertyOp23
 70
     1
102
RTVSPropertyOp24
 70
     1
102
RTVSPropertyOp25
 70
     1
102
RTVSPropertyOp26
 70
     1
102
RTVSPropertyOp27
 70
     1
102
RTVSPropertyOp28
 70
     1
102
RTVSPropertyOp29
 70
     1
102
RTVSPropertyOp30
 70
     1
102
RTVSPropertyOp31
 70
     1
102
RTVSPropertyOp32
 70
     1
  0
XRECORD
  5
ABA8
102
{ACAD_REACTORS
330
ABA7
102
}
330
ABA7
100
AcDbXrecord
280
     1
102
RTVSPropertyOp0
 70
     0
102
RTVSPropertyOp1
 70
     0
102
RTVSPropertyOp2
 70
     0
102
RTVSPropertyOp3
 70
     0
102
RTVSPropertyOp4
 70
     0
102
RTVSPropertyOp5
 70
     0
102
RTVSPropertyOp6
 70
     0
102
RTVSPropertyOp7
 70
     0
102
RTVSPropertyOp8
 70
     0
102
RTVSPropertyOp9
 70
     0
102
RTVSPropertyOp10
 70
     0
102
RTVSPropertyOp11
 70
     0
102
RTVSPropertyOp12
 70
     0
102
RTVSPropertyOp13
 70
     0
102
RTVSPropertyOp14
 70
     2
102
RTVSPropertyOp15
 70
     0
102
RTVSPropertyOp16
 70
     0
102
RTVSPropertyOp17
 70
     0
102
RTVSPropertyOp18
 70
     0
102
RTVSPropertyOp19
 70
     0
102
RTVSPropertyOp20
 70
     0
102
RTVSPropertyOp21
 70
     0
102
RTVSPropertyOp22
 70
     0
102
RTVSPropertyOp23
 70
     0
102
RTVSPropertyOp24
 70
     0
102
RTVSPropertyOp25
 70
     0
102
RTVSPropertyOp26
 70
     0
102
RTVSPropertyOp27
 70
     0
102
RTVSPropertyOp28
 70
     0
102
RTVSPropertyOp29
 70
     0
102
RTVSPropertyOp30
 70
     0
102
RTVSPropertyOp31
 70
     0
102
RTVSPropertyOp32
 70
     0
  0
XRECORD
  5
AB89
102
{ACAD_REACTORS
330
AB88
102
}
330
AB88
100
AcDbXrecord
280
     1
102
RTVSPropertyOp0
 70
     1
102
RTVSPropertyOp1
 70
     1
102
RTVSPropertyOp2
 70
     1
102
RTVSPropertyOp3
 70
     1
102
RTVSPropertyOp4
 70
     1
102
RTVSPropertyOp5
 70
     1
102
RTVSPropertyOp6
 70
     1
102
RTVSPropertyOp7
 70
     1
102
RTVSPropertyOp8
 70
     1
102
RTVSPropertyOp9
 70
     1
102
RTVSPropertyOp10
 70
     1
102
RTVSPropertyOp11
 70
     1
102
RTVSPropertyOp12
 70
     1
102
RTVSPropertyOp13
 70
     1
102
RTVSPropertyOp14
 70
     1
102
RTVSPropertyOp15
 70
     1
102
RTVSPropertyOp16
 70
     1
102
RTVSPropertyOp17
 70
     1
102
RTVSPropertyOp18
 70
     1
102
RTVSPropertyOp19
 70
     1
102
RTVSPropertyOp20
 70
     1
102
RTVSPropertyOp21
 70
     1
102
RTVSPropertyOp22
 70
     1
102
RTVSPropertyOp23
 70
     1
102
RTVSPropertyOp24
 70
     1
102
RTVSPropertyOp25
 70
     1
102
RTVSPropertyOp26
 70
     1
102
RTVSPropertyOp27
 70
     1
102
RTVSPropertyOp28
 70
     1
102
RTVSPropertyOp29
 70
     1
102
RTVSPropertyOp30
 70
     1
102
RTVSPropertyOp31
 70
     1
102
RTVSPropertyOp32
 70
     1
  0
XRECORD
  5
ABA4
102
{ACAD_REACTORS
330
ABA3
102
}
330
ABA3
100
AcDbXrecord
280
     1
102
RTVSPropertyOp0
 70
     1
102
RTVSPropertyOp1
 70
     1
102
RTVSPropertyOp2
 70
     1
102
RTVSPropertyOp3
 70
     1
102
RTVSPropertyOp4
 70
     1
102
RTVSPropertyOp5
 70
     1
102
RTVSPropertyOp6
 70
     1
102
RTVSPropertyOp7
 70
     1
102
RTVSPropertyOp8
 70
     1
102
RTVSPropertyOp9
 70
     1
102
RTVSPropertyOp10
 70
     1
102
RTVSPropertyOp11
 70
     1
102
RTVSPropertyOp12
 70
     1
102
RTVSPropertyOp13
 70
     1
102
RTVSPropertyOp14
 70
     1
102
RTVSPropertyOp15
 70
     1
102
RTVSPropertyOp16
 70
     1
102
RTVSPropertyOp17
 70
     1
102
RTVSPropertyOp18
 70
     1
102
RTVSPropertyOp19
 70
     1
102
RTVSPropertyOp20
 70
     1
102
RTVSPropertyOp21
 70
     1
102
RTVSPropertyOp22
 70
     1
102
RTVSPropertyOp23
 70
     1
102
RTVSPropertyOp24
 70
     1
102
RTVSPropertyOp25
 70
     1
102
RTVSPropertyOp26
 70
     1
102
RTVSPropertyOp27
 70
     1
102
RTVSPropertyOp28
 70
     1
102
RTVSPropertyOp29
 70
     1
102
RTVSPropertyOp30
 70
     1
102
RTVSPropertyOp31
 70
     1
102
RTVSPropertyOp32
 70
     1
  0
XRECORD
  5
ABA2
102
{ACAD_REACTORS
330
ABA1
102
}
330
ABA1
100
AcDbXrecord
280
     1
102
RTVSPropertyOp0
 70
     1
102
RTVSPropertyOp1
 70
     1
102
RTVSPropertyOp2
 70
     1
102
RTVSPropertyOp3
 70
     1
102
RTVSPropertyOp4
 70
     1
102
RTVSPropertyOp5
 70
     1
102
RTVSPropertyOp6
 70
     1
102
RTVSPropertyOp7
 70
     1
102
RTVSPropertyOp8
 70
     1
102
RTVSPropertyOp9
 70
     1
102
RTVSPropertyOp10
 70
     1
102
RTVSPropertyOp11
 70
     1
102
RTVSPropertyOp12
 70
     1
102
RTVSPropertyOp13
 70
     1
102
RTVSPropertyOp14
 70
     1
102
RTVSPropertyOp15
 70
     1
102
RTVSPropertyOp16
 70
     1
102
RTVSPropertyOp17
 70
     1
102
RTVSPropertyOp18
 70
     1
102
RTVSPropertyOp19
 70
     1
102
RTVSPropertyOp20
 70
     1
102
RTVSPropertyOp21
 70
     1
102
RTVSPropertyOp22
 70
     1
102
RTVSPropertyOp23
 70
     1
102
RTVSPropertyOp24
 70
     1
102
RTVSPropertyOp25
 70
     1
102
RTVSPropertyOp26
 70
     1
102
RTVSPropertyOp27
 70
     1
102
RTVSPropertyOp28
 70
     1
102
RTVSPropertyOp29
 70
     1
102
RTVSPropertyOp30
 70
     1
102
RTVSPropertyOp31
 70
     1
102
RTVSPropertyOp32
 70
     1
  0
XRECORD
  5
AB9C
102
{ACAD_REACTORS
330
AB9B
102
}
330
AB9B
100
AcDbXrecord
280
     1
102
RTVSPropertyOp0
 70
     1
102
RTVSPropertyOp1
 70
     1
102
RTVSPropertyOp2
 70
     1
102
RTVSPropertyOp3
 70
     1
102
RTVSPropertyOp4
 70
     1
102
RTVSPropertyOp5
 70
     1
102
RTVSPropertyOp6
 70
     1
102
RTVSPropertyOp7
 70
     1
102
RTVSPropertyOp8
 70
     1
102
RTVSPropertyOp9
 70
     1
102
RTVSPropertyOp10
 70
     1
102
RTVSPropertyOp11
 70
     1
102
RTVSPropertyOp12
 70
     1
102
RTVSPropertyOp13
 70
     1
102
RTVSPropertyOp14
 70
     1
102
RTVSPropertyOp15
 70
     1
102
RTVSPropertyOp16
 70
     1
102
RTVSPropertyOp17
 70
     1
102
RTVSPropertyOp18
 70
     1
102
RTVSPropertyOp19
 70
     1
102
RTVSPropertyOp20
 70
     1
102
RTVSPropertyOp21
 70
     1
102
RTVSPropertyOp22
 70
     1
102
RTVSPropertyOp23
 70
     1
102
RTVSPropertyOp24
 70
     1
102
RTVSPropertyOp25
 70
     1
102
RTVSPropertyOp26
 70
     1
102
RTVSPropertyOp27
 70
     1
102
RTVSPropertyOp28
 70
     1
102
RTVSPropertyOp29
 70
     1
102
RTVSPropertyOp30
 70
     1
102
RTVSPropertyOp31
 70
     1
102
RTVSPropertyOp32
 70
     1
  0
XRECORD
  5
AB9E
102
{ACAD_REACTORS
330
AB9D
102
}
330
AB9D
100
AcDbXrecord
280
     1
102
RTVSPropertyOp0
 70
     1
102
RTVSPropertyOp1
 70
     1
102
RTVSPropertyOp2
 70
     1
102
RTVSPropertyOp3
 70
     1
102
RTVSPropertyOp4
 70
     1
102
RTVSPropertyOp5
 70
     1
102
RTVSPropertyOp6
 70
     1
102
RTVSPropertyOp7
 70
     1
102
RTVSPropertyOp8
 70
     1
102
RTVSPropertyOp9
 70
     1
102
RTVSPropertyOp10
 70
     1
102
RTVSPropertyOp11
 70
     1
102
RTVSPropertyOp12
 70
     1
102
RTVSPropertyOp13
 70
     1
102
RTVSPropertyOp14
 70
     1
102
RTVSPropertyOp15
 70
     1
102
RTVSPropertyOp16
 70
     1
102
RTVSPropertyOp17
 70
     1
102
RTVSPropertyOp18
 70
     1
102
RTVSPropertyOp19
 70
     1
102
RTVSPropertyOp20
 70
     1
102
RTVSPropertyOp21
 70
     1
102
RTVSPropertyOp22
 70
     1
102
RTVSPropertyOp23
 70
     1
102
RTVSPropertyOp24
 70
     1
102
RTVSPropertyOp25
 70
     1
102
RTVSPropertyOp26
 70
     1
102
RTVSPropertyOp27
 70
     1
102
RTVSPropertyOp28
 70
     1
102
RTVSPropertyOp29
 70
     1
102
RTVSPropertyOp30
 70
     1
102
RTVSPropertyOp31
 70
     1
102
RTVSPropertyOp32
 70
     1
  0
XRECORD
  5
AB8F
102
{ACAD_REACTORS
330
AB8E
102
}
330
AB8E
100
AcDbXrecord
280
     1
102
RTVSPropertyOp0
 70
     1
102
RTVSPropertyOp1
 70
     1
102
RTVSPropertyOp2
 70
     1
102
RTVSPropertyOp3
 70
     1
102
RTVSPropertyOp4
 70
     1
102
RTVSPropertyOp5
 70
     1
102
RTVSPropertyOp6
 70
     1
102
RTVSPropertyOp7
 70
     1
102
RTVSPropertyOp8
 70
     1
102
RTVSPropertyOp9
 70
     1
102
RTVSPropertyOp10
 70
     1
102
RTVSPropertyOp11
 70
     1
102
RTVSPropertyOp12
 70
     1
102
RTVSPropertyOp13
 70
     1
102
RTVSPropertyOp14
 70
     1
102
RTVSPropertyOp15
 70
     1
102
RTVSPropertyOp16
 70
     1
102
RTVSPropertyOp17
 70
     1
102
RTVSPropertyOp18
 70
     1
102
RTVSPropertyOp19
 70
     1
102
RTVSPropertyOp20
 70
     1
102
RTVSPropertyOp21
 70
     1
102
RTVSPropertyOp22
 70
     1
102
RTVSPropertyOp23
 70
     1
102
RTVSPropertyOp24
 70
     1
102
RTVSPropertyOp25
 70
     1
102
RTVSPropertyOp26
 70
     1
102
RTVSPropertyOp27
 70
     1
102
RTVSPropertyOp28
 70
     1
102
RTVSPropertyOp29
 70
     1
102
RTVSPropertyOp30
 70
     1
102
RTVSPropertyOp31
 70
     1
102
RTVSPropertyOp32
 70
     1
  0
XRECORD
  5
AB98
102
{ACAD_REACTORS
330
AB97
102
}
330
AB97
100
AcDbXrecord
280
     1
102
RTVSPropertyOp0
 70
     1
102
RTVSPropertyOp1
 70
     1
102
RTVSPropertyOp2
 70
     1
102
RTVSPropertyOp3
 70
     1
102
RTVSPropertyOp4
 70
     1
102
RTVSPropertyOp5
 70
     1
102
RTVSPropertyOp6
 70
     1
102
RTVSPropertyOp7
 70
     1
102
RTVSPropertyOp8
 70
     1
102
RTVSPropertyOp9
 70
     1
102
RTVSPropertyOp10
 70
     1
102
RTVSPropertyOp11
 70
     1
102
RTVSPropertyOp12
 70
     1
102
RTVSPropertyOp13
 70
     1
102
RTVSPropertyOp14
 70
     1
102
RTVSPropertyOp15
 70
     1
102
RTVSPropertyOp16
 70
     1
102
RTVSPropertyOp17
 70
     1
102
RTVSPropertyOp18
 70
     1
102
RTVSPropertyOp19
 70
     1
102
RTVSPropertyOp20
 70
     1
102
RTVSPropertyOp21
 70
     1
102
RTVSPropertyOp22
 70
     1
102
RTVSPropertyOp23
 70
     1
102
RTVSPropertyOp24
 70
     1
102
RTVSPropertyOp25
 70
     1
102
RTVSPropertyOp26
 70
     1
102
RTVSPropertyOp27
 70
     1
102
RTVSPropertyOp28
 70
     1
102
RTVSPropertyOp29
 70
     1
102
RTVSPropertyOp30
 70
     1
102
RTVSPropertyOp31
 70
     1
102
RTVSPropertyOp32
 70
     1
  0
XRECORD
  5
ABA0
102
{ACAD_REACTORS
330
AB9F
102
}
330
AB9F
100
AcDbXrecord
280
     1
102
RTVSPropertyOp0
 70
     1
102
RTVSPropertyOp1
 70
     1
102
RTVSPropertyOp2
 70
     1
102
RTVSPropertyOp3
 70
     1
102
RTVSPropertyOp4
 70
     1
102
RTVSPropertyOp5
 70
     1
102
RTVSPropertyOp6
 70
     1
102
RTVSPropertyOp7
 70
     1
102
RTVSPropertyOp8
 70
     1
102
RTVSPropertyOp9
 70
     1
102
RTVSPropertyOp10
 70
     1
102
RTVSPropertyOp11
 70
     1
102
RTVSPropertyOp12
 70
     1
102
RTVSPropertyOp13
 70
     1
102
RTVSPropertyOp14
 70
     1
102
RTVSPropertyOp15
 70
     1
102
RTVSPropertyOp16
 70
     1
102
RTVSPropertyOp17
 70
     1
102
RTVSPropertyOp18
 70
     1
102
RTVSPropertyOp19
 70
     1
102
RTVSPropertyOp20
 70
     1
102
RTVSPropertyOp21
 70
     1
102
RTVSPropertyOp22
 70
     1
102
RTVSPropertyOp23
 70
     1
102
RTVSPropertyOp24
 70
     1
102
RTVSPropertyOp25
 70
     1
102
RTVSPropertyOp26
 70
     1
102
RTVSPropertyOp27
 70
     1
102
RTVSPropertyOp28
 70
     1
102
RTVSPropertyOp29
 70
     1
102
RTVSPropertyOp30
 70
     1
102
RTVSPropertyOp31
 70
     1
102
RTVSPropertyOp32
 70
     1
  0
ENDSEC
  0
EOF
